ISO-10303-21;
HEADER;
FILE_DESCRIPTION (( 'STEP AP203' ),
    '1' );
FILE_NAME ('c5a3.STEP',
    '2022-07-07T09:39:40',
    ( '' ),
    ( '' ),
    'SwSTEP 2.0',
    'SolidWorks 2019',
    '' );
FILE_SCHEMA (( 'CONFIG_CONTROL_DESIGN' ));
ENDSEC;

DATA;
#1 = AXIS2_PLACEMENT_3D ( 'NONE', #166, #261, #217 ) ;
#2 = APPROVAL ( #56, 'NEURÈENÝ' ) ;
#3 = LOCAL_TIME ( 11, 39, 40.00000000000000000, #299 ) ;
#4 = EDGE_CURVE ( 'NONE', #60, #7, #165, .T. ) ;
#5 = APPROVAL_DATE_TIME ( #204, #39 ) ;
#6 = FACE_OUTER_BOUND ( 'NONE', #129, .T. ) ;
#7 = VERTEX_POINT ( 'NONE', #291 ) ;
#8 = EDGE_LOOP ( 'NONE', ( #127, #195, #131, #250 ) ) ;
#9 = EDGE_LOOP ( 'NONE', ( #275, #178, #82, #10 ) ) ;
#10 = ORIENTED_EDGE ( 'NONE', *, *, #283, .F. ) ;
#11 = CARTESIAN_POINT ( 'NONE',  ( 0.000000000000000000, 0.000000000000000000, 7.000000000000000000 ) ) ;
#12 = ORGANIZATION ( 'NEURÈENÝ', 'NEURÈENÝ', '' ) ;
#13 = APPROVAL_ROLE ( '' ) ;
#14 = AXIS2_PLACEMENT_3D ( 'NONE', #115, #94, #186 ) ;
#15 = PERSON_AND_ORGANIZATION ( #267, #12 ) ;
#16 = CARTESIAN_POINT ( 'NONE',  ( 0.000000000000000000, 0.000000000000000000, 7.199999999999984190 ) ) ;
#17 = CARTESIAN_POINT ( 'NONE',  ( 11.00000000000000000, 1.347111479062088405E-15, 7.000000000000000000 ) ) ;
#18 = EDGE_CURVE ( 'NONE', #174, #60, #54, .T. ) ;
#19 = UNCERTAINTY_MEASURE_WITH_UNIT (LENGTH_MEASURE( 1.000000000000000082E-05 ), #288, 'distance_accuracy_value', 'NONE');
#20 = DIRECTION ( 'NONE',  ( 1.000000000000000000, 0.000000000000000000, 0.000000000000000000 ) ) ;
#21 = AXIS2_PLACEMENT_3D ( 'NONE', #104, #197, #240 ) ;
#22 = DIRECTION ( 'NONE',  ( 1.000000000000000000, 0.000000000000000000, 0.000000000000000000 ) ) ;
#23 = CARTESIAN_POINT ( 'NONE',  ( 0.000000000000000000, 0.000000000000000000, 7.000000000000000000 ) ) ;
#24 = AXIS2_PLACEMENT_3D ( 'NONE', #193, #225, #52 ) ;
#25 = EDGE_CURVE ( 'NONE', #125, #224, #145, .T. ) ;
#26 = AXIS2_PLACEMENT_3D ( 'NONE', #263, #212, #306 ) ;
#27 = AXIS2_PLACEMENT_3D ( 'NONE', #206, #302, #183 ) ;
#28 = CALENDAR_DATE ( 2022, 7, 7 ) ;
#29 = CARTESIAN_POINT ( 'NONE',  ( 11.00000000000000000, 1.347111479062088405E-15, 0.000000000000000000 ) ) ;
#30 = LOCAL_TIME ( 11, 39, 40.00000000000000000, #196 ) ;
#31 = ORIENTED_EDGE ( 'NONE', *, *, #227, .F. ) ;
#32 = DATE_TIME_ROLE ( 'classification_date' ) ;
#33 = ORIENTED_EDGE ( 'NONE', *, *, #167, .F. ) ;
#34 = DATE_AND_TIME ( #87, #73 ) ;
#35 = EDGE_LOOP ( 'NONE', ( #75, #152, #53, #148 ) ) ;
#36 = DIRECTION ( 'NONE',  ( 0.000000000000000000, 0.000000000000000000, 1.000000000000000000 ) ) ;
#37 = VERTEX_POINT ( 'NONE', #74 ) ;
#38 = CALENDAR_DATE ( 2022, 7, 7 ) ;
#39 = APPROVAL ( #230, 'NEURÈENÝ' ) ;
#40 = CIRCLE ( 'NONE', #199, 11.00000000000000000 ) ;
#41 = PERSON_AND_ORGANIZATION ( #267, #12 ) ;
#42 = DIRECTION ( 'NONE',  ( 1.000000000000000000, 0.000000000000000000, 0.000000000000000000 ) ) ;
#43 = AXIS2_PLACEMENT_3D ( 'NONE', #67, #307, #96 ) ;
#44 = PERSON_AND_ORGANIZATION_ROLE ( 'classification_officer' ) ;
#45 = PLANE ( 'NONE',  #168 ) ;
#46 = ADVANCED_FACE ( 'NONE', ( #105 ), #171, .T. ) ;
#47 = FACE_OUTER_BOUND ( 'NONE', #151, .T. ) ;
#48 = DIRECTION ( 'NONE',  ( -1.000000000000000000, 0.000000000000000000, 0.000000000000000000 ) ) ;
#49 = CIRCLE ( 'NONE', #220, 7.200000000000001066 ) ;
#50 = ADVANCED_FACE ( 'NONE', ( #266, #6 ), #173, .T. ) ;
#51 = AXIS2_PLACEMENT_3D ( 'NONE', #76, #128, #269 ) ;
#52 = DIRECTION ( 'NONE',  ( 1.000000000000000000, 0.000000000000000000, -0.000000000000000000 ) ) ;
#53 = ORIENTED_EDGE ( 'NONE', *, *, #283, .T. ) ;
#54 = LINE ( 'NONE', #297, #161 ) ;
#55 = EDGE_LOOP ( 'NONE', ( #177, #172 ) ) ;
#56 = APPROVAL_STATUS ( 'not_yet_approved' ) ;
#57 = EDGE_LOOP ( 'NONE', ( #222, #64, #62, #31 ) ) ;
#58 = VECTOR ( 'NONE', #221, 1000.000000000000000 ) ;
#59 = CC_DESIGN_PERSON_AND_ORGANIZATION_ASSIGNMENT ( #15, #175, ( #139 ) ) ;
#60 = VERTEX_POINT ( 'NONE', #29 ) ;
#61 = PERSON_AND_ORGANIZATION_ROLE ( 'design_supplier' ) ;
#62 = ORIENTED_EDGE ( 'NONE', *, *, #4, .T. ) ;
#63 = APPLICATION_PROTOCOL_DEFINITION ( 'international standard', 'config_control_design', 1994, #123 ) ;
#64 = ORIENTED_EDGE ( 'NONE', *, *, #18, .T. ) ;
#65 = DIRECTION ( 'NONE',  ( -0.000000000000000000, -0.000000000000000000, -1.000000000000000000 ) ) ;
#66 = FACE_OUTER_BOUND ( 'NONE', #9, .T. ) ;
#67 = CARTESIAN_POINT ( 'NONE',  ( 0.000000000000000000, 0.000000000000000000, 1006.999999999999886 ) ) ;
#68 = FACE_OUTER_BOUND ( 'NONE', #8, .T. ) ;
#69 =( GEOMETRIC_REPRESENTATION_CONTEXT ( 3 ) GLOBAL_UNCERTAINTY_ASSIGNED_CONTEXT ( ( #19 ) ) GLOBAL_UNIT_ASSIGNED_CONTEXT ( ( #288, #153, #132 ) ) REPRESENTATION_CONTEXT ( 'NONE', 'WORKASPACE' ) );
#70 = DIRECTION ( 'NONE',  ( 1.000000000000000000, 0.000000000000000000, -0.000000000000000000 ) ) ;
#71 = EDGE_CURVE ( 'NONE', #125, #107, #192, .T. ) ;
#72 = CIRCLE ( 'NONE', #143, 0.1999999999999996503 ) ;
#73 = LOCAL_TIME ( 11, 39, 40.00000000000000000, #303 ) ;
#74 = CARTESIAN_POINT ( 'NONE',  ( -7.000000000000000888, 0.000000000000000000, 7.199999999999984190 ) ) ;
#75 = ORIENTED_EDGE ( 'NONE', *, *, #25, .F. ) ;
#76 = CARTESIAN_POINT ( 'NONE',  ( 0.000000000000000000, 0.000000000000000000, 1006.999999999999886 ) ) ;
#77 = DIRECTION ( 'NONE',  ( 1.000000000000000000, 0.000000000000000000, 0.000000000000000000 ) ) ;
#78 = ORIENTED_EDGE ( 'NONE', *, *, #248, .F. ) ;
#79 = DATE_AND_TIME ( #134, #3 ) ;
#80 = ADVANCED_FACE ( 'NONE', ( #47 ), #286, .F. ) ;
#81 = APPROVAL_PERSON_ORGANIZATION ( #41, #2, #182 ) ;
#82 = ORIENTED_EDGE ( 'NONE', *, *, #289, .T. ) ;
#83 = APPLICATION_PROTOCOL_DEFINITION ( 'international standard', 'config_control_design', 1994, #285 ) ;
#84 = ORIENTED_EDGE ( 'NONE', *, *, #190, .T. ) ;
#85 = PERSON_AND_ORGANIZATION_ROLE ( 'design_owner' ) ;
#86 = DIRECTION ( 'NONE',  ( 0.000000000000000000, 0.000000000000000000, 1.000000000000000000 ) ) ;
#87 = CALENDAR_DATE ( 2022, 7, 7 ) ;
#88 = MANIFOLD_SOLID_BREP ( 'Zaoblit1', #292 ) ;
#89 = CARTESIAN_POINT ( 'NONE',  ( -7.200000000000001066, 8.817456953860944275E-16, 7.199999999999984190 ) ) ;
#90 = CIRCLE ( 'NONE', #265, 11.00000000000000000 ) ;
#91 = AXIS2_PLACEMENT_3D ( 'NONE', #23, #236, #118 ) ;
#92 = ADVANCED_BREP_SHAPE_REPRESENTATION ( 'c5a3', ( #88, #290 ), #69 ) ;
#93 = CARTESIAN_POINT ( 'NONE',  ( 7.000000000000000888, 8.572527594031474176E-16, 1006.999999999999886 ) ) ;
#94 = DIRECTION ( 'NONE',  ( 0.000000000000000000, 0.000000000000000000, 1.000000000000000000 ) ) ;
#95 = CARTESIAN_POINT ( 'NONE',  ( -7.200000000000001066, 8.817456953860944275E-16, 6.999999999999992006 ) ) ;
#96 = DIRECTION ( 'NONE',  ( 1.000000000000000000, 0.000000000000000000, -0.000000000000000000 ) ) ;
#97 = CC_DESIGN_DATE_AND_TIME_ASSIGNMENT ( #245, #32, ( #257 ) ) ;
#98 = DIRECTION ( 'NONE',  ( 0.000000000000000000, 0.000000000000000000, 1.000000000000000000 ) ) ;
#99 = EDGE_CURVE ( 'NONE', #107, #125, #211, .T. ) ;
#100 = CIRCLE ( 'NONE', #1, 7.200000000000001066 ) ;
#101 = CARTESIAN_POINT ( 'NONE',  ( 0.000000000000000000, 0.000000000000000000, 0.000000000000000000 ) ) ;
#102 = DATE_TIME_ROLE ( 'creation_date' ) ;
#103 = ADVANCED_FACE ( 'NONE', ( #66 ), #281, .T. ) ;
#104 = CARTESIAN_POINT ( 'NONE',  ( 0.000000000000000000, 0.000000000000000000, 0.000000000000000000 ) ) ;
#105 = FACE_OUTER_BOUND ( 'NONE', #35, .T. ) ;
#106 = MECHANICAL_CONTEXT ( 'NONE', #123, 'mechanical' ) ;
#107 = VERTEX_POINT ( 'NONE', #210 ) ;
#108 = PRODUCT_DEFINITION_FORMATION_WITH_SPECIFIED_SOURCE ( 'LIBOVOLNÝ', '', #176, .NOT_KNOWN. ) ;
#109 = ORIENTED_EDGE ( 'NONE', *, *, #184, .T. ) ;
#110 = DIRECTION ( 'NONE',  ( -0.000000000000000000, -0.000000000000000000, -1.000000000000000000 ) ) ;
#111 = DIRECTION ( 'NONE',  ( 0.000000000000000000, 0.000000000000000000, 1.000000000000000000 ) ) ;
#112 = CARTESIAN_POINT ( 'NONE',  ( 0.000000000000000000, 0.000000000000000000, 7.000000000000000000 ) ) ;
#113 = DIRECTION ( 'NONE',  ( -0.000000000000000000, -0.000000000000000000, -1.000000000000000000 ) ) ;
#114 = CC_DESIGN_PERSON_AND_ORGANIZATION_ASSIGNMENT ( #276, #85, ( #176 ) ) ;
#115 = CARTESIAN_POINT ( 'NONE',  ( 0.000000000000000000, 0.000000000000000000, 1006.999999999999886 ) ) ;
#116 = CIRCLE ( 'NONE', #215, 7.000000000000000888 ) ;
#117 = CARTESIAN_POINT ( 'NONE',  ( -11.00000000000000000, 0.000000000000000000, 7.000000000000000000 ) ) ;
#118 = DIRECTION ( 'NONE',  ( -1.000000000000000000, 0.000000000000000000, 0.000000000000000000 ) ) ;
#119 = CC_DESIGN_APPROVAL ( #147, ( #139 ) ) ;
#120 = AXIS2_PLACEMENT_3D ( 'NONE', #194, #36, #77 ) ;
#121 = PRODUCT_RELATED_PRODUCT_CATEGORY ( 'detail', '', ( #176 ) ) ;
#122 = DIRECTION ( 'NONE',  ( 0.000000000000000000, 0.000000000000000000, 1.000000000000000000 ) ) ;
#123 = APPLICATION_CONTEXT ( 'configuration controlled 3d designs of mechanical parts and assemblies' ) ;
#124 = ADVANCED_FACE ( 'NONE', ( #140 ), #213, .T. ) ;
#125 = VERTEX_POINT ( 'NONE', #93 ) ;
#126 = COORDINATED_UNIVERSAL_TIME_OFFSET ( 1, 0, .AHEAD. ) ;
#127 = ORIENTED_EDGE ( 'NONE', *, *, #18, .F. ) ;
#128 = DIRECTION ( 'NONE',  ( -0.000000000000000000, -0.000000000000000000, -1.000000000000000000 ) ) ;
#129 = EDGE_LOOP ( 'NONE', ( #84, #159 ) ) ;
#130 = CALENDAR_DATE ( 2022, 7, 7 ) ;
#131 = ORIENTED_EDGE ( 'NONE', *, *, #227, .T. ) ;
#132 =( NAMED_UNIT ( * ) SI_UNIT ( $, .STERADIAN. ) SOLID_ANGLE_UNIT ( ) );
#133 = VECTOR ( 'NONE', #110, 1000.000000000000000 ) ;
#134 = CALENDAR_DATE ( 2022, 7, 7 ) ;
#135 = COORDINATED_UNIVERSAL_TIME_OFFSET ( 1, 0, .AHEAD. ) ;
#136 = CARTESIAN_POINT ( 'NONE',  ( 0.000000000000000000, 0.000000000000000000, 0.000000000000000000 ) ) ;
#137 = CARTESIAN_POINT ( 'NONE',  ( 0.000000000000000000, 0.000000000000000000, 7.199999999999984190 ) ) ;
#138 = VECTOR ( 'NONE', #189, 1000.000000000000000 ) ;
#139 = PRODUCT_DEFINITION ( 'NEZNÁMÝ', '', #108, #163 ) ;
#140 = FACE_OUTER_BOUND ( 'NONE', #244, .T. ) ;
#141 = CARTESIAN_POINT ( 'NONE',  ( 7.000000000000000888, 8.572527594031474176E-16, 7.199999999999984190 ) ) ;
#142 = ORIENTED_EDGE ( 'NONE', *, *, #180, .F. ) ;
#143 = AXIS2_PLACEMENT_3D ( 'NONE', #89, #280, #181 ) ;
#144 = CC_DESIGN_PERSON_AND_ORGANIZATION_ASSIGNMENT ( #154, #44, ( #257 ) ) ;
#145 = LINE ( 'NONE', #150, #58 ) ;
#146 = DIRECTION ( 'NONE',  ( 0.000000000000000000, 0.000000000000000000, 1.000000000000000000 ) ) ;
#147 = APPROVAL ( #256, 'NEURÈENÝ' ) ;
#148 = ORIENTED_EDGE ( 'NONE', *, *, #167, .T. ) ;
#149 = AXIS2_PLACEMENT_3D ( 'NONE', #101, #146, #241 ) ;
#150 = CARTESIAN_POINT ( 'NONE',  ( 7.000000000000000888, 8.572527594031474176E-16, 1006.999999999999886 ) ) ;
#151 = EDGE_LOOP ( 'NONE', ( #33, #268, #300, #78 ) ) ;
#152 = ORIENTED_EDGE ( 'NONE', *, *, #99, .F. ) ;
#153 =( NAMED_UNIT ( * ) PLANE_ANGLE_UNIT ( ) SI_UNIT ( $, .RADIAN. ) );
#154 = PERSON_AND_ORGANIZATION ( #267, #12 ) ;
#155 = EDGE_LOOP ( 'NONE', ( #142, #271, #228, #229 ) ) ;
#156 = PERSON_AND_ORGANIZATION ( #267, #12 ) ;
#157 = CIRCLE ( 'NONE', #149, 11.00000000000000000 ) ;
#158 = CYLINDRICAL_SURFACE ( 'NONE', #27, 11.00000000000000000 ) ;
#159 = ORIENTED_EDGE ( 'NONE', *, *, #270, .T. ) ;
#160 = CARTESIAN_POINT ( 'NONE',  ( 7.200000000000001066, 0.000000000000000000, 6.999999999999992006 ) ) ;
#161 = VECTOR ( 'NONE', #295, 1000.000000000000000 ) ;
#162 = ADVANCED_FACE ( 'NONE', ( #185 ), #158, .T. ) ;
#163 = DESIGN_CONTEXT ( 'detailed design', #285, 'design' ) ;
#164 = LOCAL_TIME ( 11, 39, 40.00000000000000000, #135 ) ;
#165 = CIRCLE ( 'NONE', #21, 11.00000000000000000 ) ;
#166 = CARTESIAN_POINT ( 'NONE',  ( 0.000000000000000000, 0.000000000000000000, 7.000000000000000000 ) ) ;
#167 = EDGE_CURVE ( 'NONE', #37, #224, #116, .T. ) ;
#168 = AXIS2_PLACEMENT_3D ( 'NONE', #136, #98, #70 ) ;
#169 = AXIS2_PLACEMENT_3D ( 'NONE', #137, #233, #20 ) ;
#170 = SHAPE_DEFINITION_REPRESENTATION ( #242, #92 ) ;
#171 = CYLINDRICAL_SURFACE ( 'NONE', #51, 7.000000000000000888 ) ;
#172 = ORIENTED_EDGE ( 'NONE', *, *, #4, .F. ) ;
#173 = PLANE ( 'NONE',  #24 ) ;
#174 = VERTEX_POINT ( 'NONE', #17 ) ;
#175 = PERSON_AND_ORGANIZATION_ROLE ( 'creator' ) ;
#176 = PRODUCT ( 'c5a3', 'c5a3', '', ( #106 ) ) ;
#177 = ORIENTED_EDGE ( 'NONE', *, *, #305, .F. ) ;
#178 = ORIENTED_EDGE ( 'NONE', *, *, #25, .T. ) ;
#179 = DIRECTION ( 'NONE',  ( 1.000000000000000000, 0.000000000000000000, 0.000000000000000000 ) ) ;
#180 = EDGE_CURVE ( 'NONE', #37, #253, #72, .T. ) ;
#181 = DIRECTION ( 'NONE',  ( -1.000000000000000000, 1.224646799147358384E-16, 0.000000000000000000 ) ) ;
#182 = APPROVAL_ROLE ( '' ) ;
#183 = DIRECTION ( 'NONE',  ( -1.000000000000000000, 0.000000000000000000, 0.000000000000000000 ) ) ;
#184 = EDGE_CURVE ( 'NONE', #200, #253, #49, .T. ) ;
#185 = FACE_OUTER_BOUND ( 'NONE', #57, .T. ) ;
#186 = DIRECTION ( 'NONE',  ( 1.000000000000000000, 0.000000000000000000, 0.000000000000000000 ) ) ;
#187 = CARTESIAN_POINT ( 'NONE',  ( -11.00000000000000000, 0.000000000000000000, 7.000000000000000000 ) ) ;
#188 = CC_DESIGN_SECURITY_CLASSIFICATION ( #257, ( #108 ) ) ;
#189 = DIRECTION ( 'NONE',  ( -0.000000000000000000, -0.000000000000000000, -1.000000000000000000 ) ) ;
#190 = EDGE_CURVE ( 'NONE', #246, #174, #90, .T. ) ;
#191 = APPROVAL_PERSON_ORGANIZATION ( #203, #39, #13 ) ;
#192 = CIRCLE ( 'NONE', #238, 7.000000000000000888 ) ;
#193 = CARTESIAN_POINT ( 'NONE',  ( 0.000000000000000000, 0.000000000000000000, 7.000000000000000000 ) ) ;
#194 = CARTESIAN_POINT ( 'NONE',  ( 0.000000000000000000, 0.000000000000000000, 7.199999999999984190 ) ) ;
#195 = ORIENTED_EDGE ( 'NONE', *, *, #190, .F. ) ;
#196 = COORDINATED_UNIVERSAL_TIME_OFFSET ( 1, 0, .AHEAD. ) ;
#197 = DIRECTION ( 'NONE',  ( 0.000000000000000000, 0.000000000000000000, 1.000000000000000000 ) ) ;
#198 = DIRECTION ( 'NONE',  ( 0.000000000000000000, 0.000000000000000000, 1.000000000000000000 ) ) ;
#199 = AXIS2_PLACEMENT_3D ( 'NONE', #11, #198, #251 ) ;
#200 = VERTEX_POINT ( 'NONE', #160 ) ;
#201 = CC_DESIGN_PERSON_AND_ORGANIZATION_ASSIGNMENT ( #273, #61, ( #108 ) ) ;
#202 = ORIENTED_EDGE ( 'NONE', *, *, #219, .T. ) ;
#203 = PERSON_AND_ORGANIZATION ( #267, #12 ) ;
#204 = DATE_AND_TIME ( #28, #284 ) ;
#205 = CARTESIAN_POINT ( 'NONE',  ( 0.000000000000000000, 0.000000000000000000, 7.199999999999984190 ) ) ;
#206 = CARTESIAN_POINT ( 'NONE',  ( 0.000000000000000000, 0.000000000000000000, 7.000000000000000000 ) ) ;
#207 = CARTESIAN_POINT ( 'NONE',  ( 0.000000000000000000, 0.000000000000000000, 0.000000000000000000 ) ) ;
#208 = DIRECTION ( 'NONE',  ( 1.000000000000000000, 0.000000000000000000, 0.000000000000000000 ) ) ;
#209 = ADVANCED_FACE ( 'NONE', ( #260 ), #45, .F. ) ;
#210 = CARTESIAN_POINT ( 'NONE',  ( -7.000000000000000888, 0.000000000000000000, 1006.999999999999886 ) ) ;
#211 = CIRCLE ( 'NONE', #14, 7.000000000000000888 ) ;
#212 = DIRECTION ( 'NONE',  ( 0.000000000000000000, -1.000000000000000000, 0.000000000000000000 ) ) ;
#213 = PLANE ( 'NONE',  #43 ) ;
#214 = LINE ( 'NONE', #187, #138 ) ;
#215 = AXIS2_PLACEMENT_3D ( 'NONE', #16, #86, #208 ) ;
#216 = AXIS2_PLACEMENT_3D ( 'NONE', #205, #277, #252 ) ;
#217 = DIRECTION ( 'NONE',  ( 1.000000000000000000, 0.000000000000000000, 0.000000000000000000 ) ) ;
#218 = AXIS2_PLACEMENT_3D ( 'NONE', #282, #113, #48 ) ;
#219 = EDGE_CURVE ( 'NONE', #253, #200, #100, .T. ) ;
#220 = AXIS2_PLACEMENT_3D ( 'NONE', #278, #65, #258 ) ;
#221 = DIRECTION ( 'NONE',  ( -0.000000000000000000, -0.000000000000000000, -1.000000000000000000 ) ) ;
#222 = ORIENTED_EDGE ( 'NONE', *, *, #270, .F. ) ;
#223 = DATE_AND_TIME ( #130, #30 ) ;
#224 = VERTEX_POINT ( 'NONE', #141 ) ;
#225 = DIRECTION ( 'NONE',  ( 0.000000000000000000, 0.000000000000000000, 1.000000000000000000 ) ) ;
#226 = PERSON_AND_ORGANIZATION_ROLE ( 'creator' ) ;
#227 = EDGE_CURVE ( 'NONE', #246, #7, #214, .T. ) ;
#228 = ORIENTED_EDGE ( 'NONE', *, *, #248, .T. ) ;
#229 = ORIENTED_EDGE ( 'NONE', *, *, #219, .F. ) ;
#230 = APPROVAL_STATUS ( 'not_yet_approved' ) ;
#231 = CARTESIAN_POINT ( 'NONE',  ( -7.000000000000000888, 0.000000000000000000, 1006.999999999999886 ) ) ;
#232 = APPROVAL_ROLE ( '' ) ;
#233 = DIRECTION ( 'NONE',  ( 0.000000000000000000, 0.000000000000000000, 1.000000000000000000 ) ) ;
#234 = CYLINDRICAL_SURFACE ( 'NONE', #91, 11.00000000000000000 ) ;
#235 = ADVANCED_FACE ( 'NONE', ( #68 ), #234, .T. ) ;
#236 = DIRECTION ( 'NONE',  ( -0.000000000000000000, -0.000000000000000000, -1.000000000000000000 ) ) ;
#237 = CC_DESIGN_APPROVAL ( #2, ( #108 ) ) ;
#238 = AXIS2_PLACEMENT_3D ( 'NONE', #247, #122, #22 ) ;
#239 = APPROVAL_PERSON_ORGANIZATION ( #156, #147, #232 ) ;
#240 = DIRECTION ( 'NONE',  ( 1.000000000000000000, 0.000000000000000000, 0.000000000000000000 ) ) ;
#241 = DIRECTION ( 'NONE',  ( 1.000000000000000000, 0.000000000000000000, 0.000000000000000000 ) ) ;
#242 = PRODUCT_DEFINITION_SHAPE ( 'NONE', 'NONE',  #139 ) ;
#243 = CC_DESIGN_APPROVAL ( #39, ( #257 ) ) ;
#244 = EDGE_LOOP ( 'NONE', ( #255, #294 ) ) ;
#245 = DATE_AND_TIME ( #38, #164 ) ;
#246 = VERTEX_POINT ( 'NONE', #117 ) ;
#247 = CARTESIAN_POINT ( 'NONE',  ( 0.000000000000000000, 0.000000000000000000, 1006.999999999999886 ) ) ;
#248 = EDGE_CURVE ( 'NONE', #224, #200, #304, .T. ) ;
#249 = APPROVAL_DATE_TIME ( #79, #147 ) ;
#250 = ORIENTED_EDGE ( 'NONE', *, *, #305, .T. ) ;
#251 = DIRECTION ( 'NONE',  ( 1.000000000000000000, 0.000000000000000000, 0.000000000000000000 ) ) ;
#252 = DIRECTION ( 'NONE',  ( 1.000000000000000000, 0.000000000000000000, 0.000000000000000000 ) ) ;
#253 = VERTEX_POINT ( 'NONE', #95 ) ;
#254 = SECURITY_CLASSIFICATION_LEVEL ( 'unclassified' ) ;
#255 = ORIENTED_EDGE ( 'NONE', *, *, #99, .T. ) ;
#256 = APPROVAL_STATUS ( 'not_yet_approved' ) ;
#257 = SECURITY_CLASSIFICATION ( '', '', #254 ) ;
#258 = DIRECTION ( 'NONE',  ( 1.000000000000000000, 0.000000000000000000, 0.000000000000000000 ) ) ;
#259 = PERSON_AND_ORGANIZATION ( #267, #12 ) ;
#260 = FACE_OUTER_BOUND ( 'NONE', #55, .T. ) ;
#261 = DIRECTION ( 'NONE',  ( -0.000000000000000000, -0.000000000000000000, -1.000000000000000000 ) ) ;
#262 = CC_DESIGN_PERSON_AND_ORGANIZATION_ASSIGNMENT ( #259, #226, ( #108 ) ) ;
#263 = CARTESIAN_POINT ( 'NONE',  ( 7.200000000000001066, 0.000000000000000000, 7.199999999999984190 ) ) ;
#264 = ADVANCED_FACE ( 'NONE', ( #301 ), #287, .F. ) ;
#265 = AXIS2_PLACEMENT_3D ( 'NONE', #112, #111, #42 ) ;
#266 = FACE_BOUND ( 'NONE', #272, .T. ) ;
#267 = PERSON ( 'NEURÈENÝ', 'NEURÈENÝ', 'NEURÈENÝ', ('NEURÈENÝ'), ('NEURÈENÝ'), ('NEURÈENÝ') ) ;
#268 = ORIENTED_EDGE ( 'NONE', *, *, #180, .T. ) ;
#269 = DIRECTION ( 'NONE',  ( -1.000000000000000000, 0.000000000000000000, 0.000000000000000000 ) ) ;
#270 = EDGE_CURVE ( 'NONE', #174, #246, #40, .T. ) ;
#271 = ORIENTED_EDGE ( 'NONE', *, *, #289, .F. ) ;
#272 = EDGE_LOOP ( 'NONE', ( #109, #202 ) ) ;
#273 = PERSON_AND_ORGANIZATION ( #267, #12 ) ;
#274 = LINE ( 'NONE', #231, #133 ) ;
#275 = ORIENTED_EDGE ( 'NONE', *, *, #71, .F. ) ;
#276 = PERSON_AND_ORGANIZATION ( #267, #12 ) ;
#277 = DIRECTION ( 'NONE',  ( 0.000000000000000000, 0.000000000000000000, 1.000000000000000000 ) ) ;
#278 = CARTESIAN_POINT ( 'NONE',  ( 0.000000000000000000, 0.000000000000000000, 7.000000000000000000 ) ) ;
#279 = APPROVAL_DATE_TIME ( #223, #2 ) ;
#280 = DIRECTION ( 'NONE',  ( 1.224646799147353207E-16, 1.000000000000000000, -0.000000000000000000 ) ) ;
#281 = CYLINDRICAL_SURFACE ( 'NONE', #218, 7.000000000000000888 ) ;
#282 = CARTESIAN_POINT ( 'NONE',  ( 0.000000000000000000, 0.000000000000000000, 1006.999999999999886 ) ) ;
#283 = EDGE_CURVE ( 'NONE', #107, #37, #274, .T. ) ;
#284 = LOCAL_TIME ( 11, 39, 40.00000000000000000, #126 ) ;
#285 = APPLICATION_CONTEXT ( 'configuration controlled 3d designs of mechanical parts and assemblies' ) ;
#286 = TOROIDAL_SURFACE ( 'NONE', #169, 7.200000000000001066, 0.2000000000000000111 ) ;
#287 = TOROIDAL_SURFACE ( 'NONE', #120, 7.200000000000001066, 0.2000000000000000111 ) ;
#288 =( LENGTH_UNIT ( ) NAMED_UNIT ( * ) SI_UNIT ( .MILLI., .METRE. ) );
#289 = EDGE_CURVE ( 'NONE', #224, #37, #298, .T. ) ;
#290 = AXIS2_PLACEMENT_3D ( 'NONE', #207, #296, #179 ) ;
#291 = CARTESIAN_POINT ( 'NONE',  ( -11.00000000000000000, 0.000000000000000000, 0.000000000000000000 ) ) ;
#292 = CLOSED_SHELL ( 'NONE', ( #80, #103, #162, #235, #50, #209, #46, #124, #264 ) ) ;
#293 = CC_DESIGN_DATE_AND_TIME_ASSIGNMENT ( #34, #102, ( #139 ) ) ;
#294 = ORIENTED_EDGE ( 'NONE', *, *, #71, .T. ) ;
#295 = DIRECTION ( 'NONE',  ( -0.000000000000000000, -0.000000000000000000, -1.000000000000000000 ) ) ;
#296 = DIRECTION ( 'NONE',  ( 0.000000000000000000, 0.000000000000000000, 1.000000000000000000 ) ) ;
#297 = CARTESIAN_POINT ( 'NONE',  ( 11.00000000000000000, 1.347111479062088405E-15, 7.000000000000000000 ) ) ;
#298 = CIRCLE ( 'NONE', #216, 7.000000000000000888 ) ;
#299 = COORDINATED_UNIVERSAL_TIME_OFFSET ( 1, 0, .AHEAD. ) ;
#300 = ORIENTED_EDGE ( 'NONE', *, *, #184, .F. ) ;
#301 = FACE_OUTER_BOUND ( 'NONE', #155, .T. ) ;
#302 = DIRECTION ( 'NONE',  ( -0.000000000000000000, -0.000000000000000000, -1.000000000000000000 ) ) ;
#303 = COORDINATED_UNIVERSAL_TIME_OFFSET ( 1, 0, .AHEAD. ) ;
#304 = CIRCLE ( 'NONE', #26, 0.1999999999999996503 ) ;
#305 = EDGE_CURVE ( 'NONE', #7, #60, #157, .T. ) ;
#306 = DIRECTION ( 'NONE',  ( 0.000000000000000000, 0.000000000000000000, -1.000000000000000000 ) ) ;
#307 = DIRECTION ( 'NONE',  ( 0.000000000000000000, 0.000000000000000000, 1.000000000000000000 ) ) ;
ENDSEC;
END-ISO-10303-21;
