ISO-10303-21;
HEADER;
FILE_DESCRIPTION (( 'STEP AP203' ),
    '1' );
FILE_NAME ('c1ad.STEP',
    '2022-07-07T10:32:41',
    ( '' ),
    ( '' ),
    'SwSTEP 2.0',
    'SolidWorks 2019',
    '' );
FILE_SCHEMA (( 'CONFIG_CONTROL_DESIGN' ));
ENDSEC;

DATA;
#1 = DIRECTION ( 'NONE',  ( 0.000000000000000000, 0.000000000000000000, 1.000000000000000000 ) ) ;
#2 = DATE_AND_TIME ( #240, #275 ) ;
#3 = EDGE_LOOP ( 'NONE', ( #49, #154 ) ) ;
#4 = APPLICATION_PROTOCOL_DEFINITION ( 'international standard', 'config_control_design', 1994, #231 ) ;
#5 = CC_DESIGN_PERSON_AND_ORGANIZATION_ASSIGNMENT ( #262, #48, ( #307 ) ) ;
#6 = EDGE_LOOP ( 'NONE', ( #109, #253 ) ) ;
#7 = APPROVAL_DATE_TIME ( #130, #279 ) ;
#8 = ORIENTED_EDGE ( 'NONE', *, *, #220, .F. ) ;
#9 = ORIENTED_EDGE ( 'NONE', *, *, #135, .F. ) ;
#10 = DIRECTION ( 'NONE',  ( 0.000000000000000000, 0.000000000000000000, 1.000000000000000000 ) ) ;
#11 = AXIS2_PLACEMENT_3D ( 'NONE', #233, #208, #113 ) ;
#12 = DIRECTION ( 'NONE',  ( -0.000000000000000000, -0.000000000000000000, -1.000000000000000000 ) ) ;
#13 = CC_DESIGN_APPROVAL ( #131, ( #274 ) ) ;
#14 = DIRECTION ( 'NONE',  ( -0.000000000000000000, -0.000000000000000000, -1.000000000000000000 ) ) ;
#15 = PERSON ( 'NEURÈENÝ', 'NEURÈENÝ', 'NEURÈENÝ', ('NEURÈENÝ'), ('NEURÈENÝ'), ('NEURÈENÝ') ) ;
#16 = CARTESIAN_POINT ( 'NONE',  ( 0.000000000000000000, 0.000000000000000000, 0.000000000000000000 ) ) ;
#17 = FACE_OUTER_BOUND ( 'NONE', #263, .T. ) ;
#18 = ADVANCED_FACE ( 'NONE', ( #87 ), #108, .F. ) ;
#19 = CARTESIAN_POINT ( 'NONE',  ( 1.250000000000000000, 1.530808498934191571E-16, 2.199999999999979750 ) ) ;
#20 = CYLINDRICAL_SURFACE ( 'NONE', #27, 2.500000000000000000 ) ;
#21 = CARTESIAN_POINT ( 'NONE',  ( 0.000000000000000000, 0.000000000000000000, 2.000000000000000000 ) ) ;
#22 = SECURITY_CLASSIFICATION_LEVEL ( 'unclassified' ) ;
#23 = CARTESIAN_POINT ( 'NONE',  ( 0.000000000000000000, 0.000000000000000000, 0.000000000000000000 ) ) ;
#24 = ORIENTED_EDGE ( 'NONE', *, *, #69, .F. ) ;
#25 = CC_DESIGN_PERSON_AND_ORGANIZATION_ASSIGNMENT ( #28, #51, ( #67 ) ) ;
#26 = CALENDAR_DATE ( 2022, 7, 7 ) ;
#27 = AXIS2_PLACEMENT_3D ( 'NONE', #190, #121, #217 ) ;
#28 = PERSON_AND_ORGANIZATION ( #15, #47 ) ;
#29 = ORIENTED_EDGE ( 'NONE', *, *, #189, .T. ) ;
#30 = LINE ( 'NONE', #271, #44 ) ;
#31 = EDGE_CURVE ( 'NONE', #183, #207, #82, .T. ) ;
#32 = AXIS2_PLACEMENT_3D ( 'NONE', #297, #295, #185 ) ;
#33 = ORIENTED_EDGE ( 'NONE', *, *, #227, .F. ) ;
#34 = FACE_OUTER_BOUND ( 'NONE', #76, .T. ) ;
#35 = ORIENTED_EDGE ( 'NONE', *, *, #110, .F. ) ;
#36 = CARTESIAN_POINT ( 'NONE',  ( 0.000000000000000000, 0.000000000000000000, 0.000000000000000000 ) ) ;
#37 = LOCAL_TIME ( 12, 32, 41.00000000000000000, #246 ) ;
#38 = DIRECTION ( 'NONE',  ( 1.224646799147353207E-16, 1.000000000000000000, -0.000000000000000000 ) ) ;
#39 = LINE ( 'NONE', #147, #285 ) ;
#40 = DIRECTION ( 'NONE',  ( 1.000000000000000000, 0.000000000000000000, 0.000000000000000000 ) ) ;
#41 = DIRECTION ( 'NONE',  ( -1.000000000000000000, 0.000000000000000000, 0.000000000000000000 ) ) ;
#42 = DIRECTION ( 'NONE',  ( -1.000000000000000000, 0.000000000000000000, 0.000000000000000000 ) ) ;
#43 = COORDINATED_UNIVERSAL_TIME_OFFSET ( 1, 0, .AHEAD. ) ;
#44 = VECTOR ( 'NONE', #14, 1000.000000000000000 ) ;
#45 = CIRCLE ( 'NONE', #54, 1.250000000000000000 ) ;
#46 = PERSON_AND_ORGANIZATION ( #15, #47 ) ;
#47 = ORGANIZATION ( 'NEURÈENÝ', 'NEURÈENÝ', '' ) ;
#48 = PERSON_AND_ORGANIZATION_ROLE ( 'creator' ) ;
#49 = ORIENTED_EDGE ( 'NONE', *, *, #166, .F. ) ;
#50 = ADVANCED_FACE ( 'NONE', ( #251 ), #163, .T. ) ;
#51 = PERSON_AND_ORGANIZATION_ROLE ( 'classification_officer' ) ;
#52 = AXIS2_PLACEMENT_3D ( 'NONE', #88, #115, #212 ) ;
#53 = DIRECTION ( 'NONE',  ( 1.000000000000000000, 0.000000000000000000, 0.000000000000000000 ) ) ;
#54 = AXIS2_PLACEMENT_3D ( 'NONE', #259, #95, #218 ) ;
#55 = ORIENTED_EDGE ( 'NONE', *, *, #135, .T. ) ;
#56 = EDGE_CURVE ( 'NONE', #62, #296, #90, .T. ) ;
#57 = EDGE_LOOP ( 'NONE', ( #158, #84 ) ) ;
#58 = FACE_OUTER_BOUND ( 'NONE', #180, .T. ) ;
#59 = AXIS2_PLACEMENT_3D ( 'NONE', #216, #304, #94 ) ;
#60 = CARTESIAN_POINT ( 'NONE',  ( -1.250000000000000000, 0.000000000000000000, 317.0000000000000000 ) ) ;
#61 = ORIENTED_EDGE ( 'NONE', *, *, #227, .T. ) ;
#62 = VERTEX_POINT ( 'NONE', #229 ) ;
#63 = CC_DESIGN_PERSON_AND_ORGANIZATION_ASSIGNMENT ( #219, #153, ( #307 ) ) ;
#64 = DIRECTION ( 'NONE',  ( 0.000000000000000000, 0.000000000000000000, -1.000000000000000000 ) ) ;
#65 = DIRECTION ( 'NONE',  ( 0.000000000000000000, 0.000000000000000000, 1.000000000000000000 ) ) ;
#66 = DIRECTION ( 'NONE',  ( -0.000000000000000000, -0.000000000000000000, -1.000000000000000000 ) ) ;
#67 = SECURITY_CLASSIFICATION ( '', '', #22 ) ;
#68 = DIRECTION ( 'NONE',  ( -0.000000000000000000, -0.000000000000000000, -1.000000000000000000 ) ) ;
#69 = EDGE_CURVE ( 'NONE', #137, #178, #30, .T. ) ;
#70 = DIRECTION ( 'NONE',  ( 1.000000000000000000, 0.000000000000000000, 0.000000000000000000 ) ) ;
#71 =( NAMED_UNIT ( * ) SI_UNIT ( $, .STERADIAN. ) SOLID_ANGLE_UNIT ( ) );
#72 = CIRCLE ( 'NONE', #268, 1.250000000000000000 ) ;
#73 = LOCAL_TIME ( 12, 32, 41.00000000000000000, #284 ) ;
#74 = CALENDAR_DATE ( 2022, 7, 7 ) ;
#75 = ADVANCED_FACE ( 'NONE', ( #34 ), #99, .F. ) ;
#76 = EDGE_LOOP ( 'NONE', ( #272, #224, #8, #162 ) ) ;
#77 = APPROVAL_ROLE ( '' ) ;
#78 = MANIFOLD_SOLID_BREP ( 'Zaoblit1', #126 ) ;
#79 = AXIS2_PLACEMENT_3D ( 'NONE', #258, #116, #281 ) ;
#80 = VERTEX_POINT ( 'NONE', #60 ) ;
#81 = ADVANCED_FACE ( 'NONE', ( #58 ), #192, .F. ) ;
#82 = LINE ( 'NONE', #294, #112 ) ;
#83 = DIRECTION ( 'NONE',  ( -1.000000000000000000, 0.000000000000000000, 0.000000000000000000 ) ) ;
#84 = ORIENTED_EDGE ( 'NONE', *, *, #141, .T. ) ;
#85 = CC_DESIGN_PERSON_AND_ORGANIZATION_ASSIGNMENT ( #203, #197, ( #223 ) ) ;
#86 = LOCAL_TIME ( 12, 32, 41.00000000000000000, #43 ) ;
#87 = FACE_OUTER_BOUND ( 'NONE', #3, .T. ) ;
#88 = CARTESIAN_POINT ( 'NONE',  ( 0.000000000000000000, 0.000000000000000000, 2.000000000000000000 ) ) ;
#89 = ADVANCED_FACE ( 'NONE', ( #161, #111 ), #226, .T. ) ;
#90 = CIRCLE ( 'NONE', #186, 1.450000000000000178 ) ;
#91 = DIRECTION ( 'NONE',  ( -0.000000000000000000, -0.000000000000000000, -1.000000000000000000 ) ) ;
#92 = CIRCLE ( 'NONE', #127, 2.500000000000000000 ) ;
#93 = DIRECTION ( 'NONE',  ( -0.000000000000000000, -0.000000000000000000, -1.000000000000000000 ) ) ;
#94 = DIRECTION ( 'NONE',  ( 1.000000000000000000, 0.000000000000000000, 0.000000000000000000 ) ) ;
#95 = DIRECTION ( 'NONE',  ( 0.000000000000000000, 0.000000000000000000, 1.000000000000000000 ) ) ;
#96 = AXIS2_PLACEMENT_3D ( 'NONE', #23, #1, #53 ) ;
#97 = FACE_OUTER_BOUND ( 'NONE', #204, .T. ) ;
#98 = EDGE_CURVE ( 'NONE', #183, #137, #225, .T. ) ;
#99 = TOROIDAL_SURFACE ( 'NONE', #143, 1.450000000000000178, 0.2000000000000000111 ) ;
#100 = CIRCLE ( 'NONE', #301, 0.2000000000000000944 ) ;
#101 = APPROVAL_ROLE ( '' ) ;
#102 = APPROVAL_DATE_TIME ( #176, #131 ) ;
#103 = EDGE_LOOP ( 'NONE', ( #35, #9, #286, #205 ) ) ;
#104 = PRODUCT_DEFINITION_SHAPE ( 'NONE', 'NONE',  #274 ) ;
#105 = CALENDAR_DATE ( 2022, 7, 7 ) ;
#106 = ADVANCED_FACE ( 'NONE', ( #273 ), #234, .T. ) ;
#107 = CC_DESIGN_APPROVAL ( #283, ( #307 ) ) ;
#108 = PLANE ( 'NONE',  #255 ) ;
#109 = ORIENTED_EDGE ( 'NONE', *, *, #220, .T. ) ;
#110 = EDGE_CURVE ( 'NONE', #199, #175, #39, .T. ) ;
#111 = FACE_OUTER_BOUND ( 'NONE', #57, .T. ) ;
#112 = VECTOR ( 'NONE', #12, 1000.000000000000000 ) ;
#113 = DIRECTION ( 'NONE',  ( 1.000000000000000000, 0.000000000000000000, 0.000000000000000000 ) ) ;
#114 = LOCAL_TIME ( 12, 32, 41.00000000000000000, #155 ) ;
#115 = DIRECTION ( 'NONE',  ( 0.000000000000000000, 0.000000000000000000, 1.000000000000000000 ) ) ;
#116 = DIRECTION ( 'NONE',  ( 0.000000000000000000, 0.000000000000000000, 1.000000000000000000 ) ) ;
#117 = AXIS2_PLACEMENT_3D ( 'NONE', #169, #214, #42 ) ;
#118 = LINE ( 'NONE', #276, #151 ) ;
#119 = DIRECTION ( 'NONE',  ( 0.000000000000000000, 0.000000000000000000, 1.000000000000000000 ) ) ;
#120 = CC_DESIGN_DATE_AND_TIME_ASSIGNMENT ( #125, #149, ( #274 ) ) ;
#121 = DIRECTION ( 'NONE',  ( -0.000000000000000000, -0.000000000000000000, -1.000000000000000000 ) ) ;
#122 = CARTESIAN_POINT ( 'NONE',  ( -2.500000000000000000, 0.000000000000000000, 2.000000000000000000 ) ) ;
#123 = APPROVAL_STATUS ( 'not_yet_approved' ) ;
#124 = CALENDAR_DATE ( 2022, 7, 7 ) ;
#125 = DATE_AND_TIME ( #105, #86 ) ;
#126 = CLOSED_SHELL ( 'NONE', ( #75, #50, #106, #252, #89, #18, #248, #201, #81 ) ) ;
#127 = AXIS2_PLACEMENT_3D ( 'NONE', #236, #65, #191 ) ;
#128 = MECHANICAL_CONTEXT ( 'NONE', #231, 'mechanical' ) ;
#129 = ORIENTED_EDGE ( 'NONE', *, *, #238, .F. ) ;
#130 = DATE_AND_TIME ( #26, #114 ) ;
#131 = APPROVAL ( #243, 'NEURÈENÝ' ) ;
#132 = ORIENTED_EDGE ( 'NONE', *, *, #31, .T. ) ;
#133 = DIRECTION ( 'NONE',  ( -0.000000000000000000, -0.000000000000000000, -1.000000000000000000 ) ) ;
#134 = ORIENTED_EDGE ( 'NONE', *, *, #166, .T. ) ;
#135 = EDGE_CURVE ( 'NONE', #80, #199, #72, .T. ) ;
#136 = CARTESIAN_POINT ( 'NONE',  ( 0.000000000000000000, 0.000000000000000000, 2.000000000000000000 ) ) ;
#137 = VERTEX_POINT ( 'NONE', #257 ) ;
#138 = DIRECTION ( 'NONE',  ( 0.000000000000000000, 0.000000000000000000, 1.000000000000000000 ) ) ;
#139 = CIRCLE ( 'NONE', #156, 1.250000000000000000 ) ;
#140 = CYLINDRICAL_SURFACE ( 'NONE', #222, 1.250000000000000000 ) ;
#141 = EDGE_CURVE ( 'NONE', #137, #183, #172, .T. ) ;
#142 = DIRECTION ( 'NONE',  ( 1.000000000000000000, 0.000000000000000000, -0.000000000000000000 ) ) ;
#143 = AXIS2_PLACEMENT_3D ( 'NONE', #210, #138, #269 ) ;
#144 = DIRECTION ( 'NONE',  ( 0.000000000000000000, 0.000000000000000000, 1.000000000000000000 ) ) ;
#145 = CIRCLE ( 'NONE', #177, 2.500000000000000000 ) ;
#146 = CC_DESIGN_DATE_AND_TIME_ASSIGNMENT ( #2, #200, ( #67 ) ) ;
#147 = CARTESIAN_POINT ( 'NONE',  ( 1.250000000000000000, 1.530808498934191571E-16, 317.0000000000000000 ) ) ;
#148 = CARTESIAN_POINT ( 'NONE',  ( 2.500000000000000000, 3.061616997868383141E-16, 0.000000000000000000 ) ) ;
#149 = DATE_TIME_ROLE ( 'creation_date' ) ;
#150 = PRODUCT_RELATED_PRODUCT_CATEGORY ( 'detail', '', ( #223 ) ) ;
#151 = VECTOR ( 'NONE', #68, 1000.000000000000000 ) ;
#152 = APPROVAL_STATUS ( 'not_yet_approved' ) ;
#153 = PERSON_AND_ORGANIZATION_ROLE ( 'design_supplier' ) ;
#154 = ORIENTED_EDGE ( 'NONE', *, *, #270, .F. ) ;
#155 = COORDINATED_UNIVERSAL_TIME_OFFSET ( 1, 0, .AHEAD. ) ;
#156 = AXIS2_PLACEMENT_3D ( 'NONE', #165, #119, #70 ) ;
#157 = APPROVAL_ROLE ( '' ) ;
#158 = ORIENTED_EDGE ( 'NONE', *, *, #98, .T. ) ;
#159 = ORIENTED_EDGE ( 'NONE', *, *, #110, .T. ) ;
#160 = ORIENTED_EDGE ( 'NONE', *, *, #298, .F. ) ;
#161 = FACE_BOUND ( 'NONE', #6, .T. ) ;
#162 = ORIENTED_EDGE ( 'NONE', *, *, #189, .F. ) ;
#163 = CYLINDRICAL_SURFACE ( 'NONE', #267, 1.250000000000000000 ) ;
#164 = FACE_OUTER_BOUND ( 'NONE', #103, .T. ) ;
#165 = CARTESIAN_POINT ( 'NONE',  ( 0.000000000000000000, 0.000000000000000000, 317.0000000000000000 ) ) ;
#166 = EDGE_CURVE ( 'NONE', #207, #178, #145, .T. ) ;
#167 = AXIS2_PLACEMENT_3D ( 'NONE', #21, #91, #187 ) ;
#168 = DESIGN_CONTEXT ( 'detailed design', #300, 'design' ) ;
#169 = CARTESIAN_POINT ( 'NONE',  ( 0.000000000000000000, 0.000000000000000000, 2.000000000000000000 ) ) ;
#170 =( NAMED_UNIT ( * ) PLANE_ANGLE_UNIT ( ) SI_UNIT ( $, .RADIAN. ) );
#171 = PERSON_AND_ORGANIZATION_ROLE ( 'creator' ) ;
#172 = CIRCLE ( 'NONE', #79, 2.500000000000000000 ) ;
#173 = PERSON_AND_ORGANIZATION ( #15, #47 ) ;
#174 = ORIENTED_EDGE ( 'NONE', *, *, #270, .T. ) ;
#175 = VERTEX_POINT ( 'NONE', #19 ) ;
#176 = DATE_AND_TIME ( #74, #73 ) ;
#177 = AXIS2_PLACEMENT_3D ( 'NONE', #16, #305, #235 ) ;
#178 = VERTEX_POINT ( 'NONE', #148 ) ;
#179 = ORIENTED_EDGE ( 'NONE', *, *, #31, .F. ) ;
#180 = EDGE_LOOP ( 'NONE', ( #129, #33, #29, #182 ) ) ;
#181 = CC_DESIGN_SECURITY_CLASSIFICATION ( #67, ( #307 ) ) ;
#182 = ORIENTED_EDGE ( 'NONE', *, *, #56, .F. ) ;
#183 = VERTEX_POINT ( 'NONE', #122 ) ;
#184 = EDGE_CURVE ( 'NONE', #80, #230, #118, .T. ) ;
#185 = DIRECTION ( 'NONE',  ( 1.000000000000000000, 0.000000000000000000, 0.000000000000000000 ) ) ;
#186 = AXIS2_PLACEMENT_3D ( 'NONE', #136, #133, #228 ) ;
#187 = DIRECTION ( 'NONE',  ( 1.000000000000000000, 0.000000000000000000, 0.000000000000000000 ) ) ;
#188 = CIRCLE ( 'NONE', #232, 0.2000000000000000944 ) ;
#189 = EDGE_CURVE ( 'NONE', #175, #296, #100, .T. ) ;
#190 = CARTESIAN_POINT ( 'NONE',  ( 0.000000000000000000, 0.000000000000000000, 2.000000000000000000 ) ) ;
#191 = DIRECTION ( 'NONE',  ( 1.000000000000000000, 0.000000000000000000, 0.000000000000000000 ) ) ;
#192 = TOROIDAL_SURFACE ( 'NONE', #11, 1.450000000000000178, 0.2000000000000000111 ) ;
#193 = DIRECTION ( 'NONE',  ( 0.000000000000000000, -1.000000000000000000, 0.000000000000000000 ) ) ;
#194 = AXIS2_PLACEMENT_3D ( 'NONE', #256, #144, #142 ) ;
#195 = CARTESIAN_POINT ( 'NONE',  ( 0.000000000000000000, 0.000000000000000000, 317.0000000000000000 ) ) ;
#196 = CC_DESIGN_PERSON_AND_ORGANIZATION_ASSIGNMENT ( #261, #171, ( #274 ) ) ;
#197 = PERSON_AND_ORGANIZATION_ROLE ( 'design_owner' ) ;
#198 = APPLICATION_PROTOCOL_DEFINITION ( 'international standard', 'config_control_design', 1994, #300 ) ;
#199 = VERTEX_POINT ( 'NONE', #299 ) ;
#200 = DATE_TIME_ROLE ( 'classification_date' ) ;
#201 = ADVANCED_FACE ( 'NONE', ( #17 ), #277, .T. ) ;
#202 = EDGE_LOOP ( 'NONE', ( #160, #159, #61, #291 ) ) ;
#203 = PERSON_AND_ORGANIZATION ( #15, #47 ) ;
#204 = EDGE_LOOP ( 'NONE', ( #24, #254, #132, #134 ) ) ;
#205 = ORIENTED_EDGE ( 'NONE', *, *, #303, .T. ) ;
#206 = APPROVAL_PERSON_ORGANIZATION ( #173, #131, #101 ) ;
#207 = VERTEX_POINT ( 'NONE', #239 ) ;
#208 = DIRECTION ( 'NONE',  ( 0.000000000000000000, 0.000000000000000000, 1.000000000000000000 ) ) ;
#209 =( GEOMETRIC_REPRESENTATION_CONTEXT ( 3 ) GLOBAL_UNCERTAINTY_ASSIGNED_CONTEXT ( ( #280 ) ) GLOBAL_UNIT_ASSIGNED_CONTEXT ( ( #242, #170, #71 ) ) REPRESENTATION_CONTEXT ( 'NONE', 'WORKASPACE' ) );
#210 = CARTESIAN_POINT ( 'NONE',  ( 0.000000000000000000, 0.000000000000000000, 2.199999999999979750 ) ) ;
#211 = SHAPE_DEFINITION_REPRESENTATION ( #104, #264 ) ;
#212 = DIRECTION ( 'NONE',  ( 1.000000000000000000, 0.000000000000000000, -0.000000000000000000 ) ) ;
#213 = CARTESIAN_POINT ( 'NONE',  ( 1.450000000000000178, 0.000000000000000000, 2.199999999999979750 ) ) ;
#214 = DIRECTION ( 'NONE',  ( -0.000000000000000000, -0.000000000000000000, -1.000000000000000000 ) ) ;
#215 = CIRCLE ( 'NONE', #167, 1.450000000000000178 ) ;
#216 = CARTESIAN_POINT ( 'NONE',  ( 0.000000000000000000, 0.000000000000000000, 2.199999999999979750 ) ) ;
#217 = DIRECTION ( 'NONE',  ( -1.000000000000000000, 0.000000000000000000, 0.000000000000000000 ) ) ;
#218 = DIRECTION ( 'NONE',  ( 1.000000000000000000, 0.000000000000000000, 0.000000000000000000 ) ) ;
#219 = PERSON_AND_ORGANIZATION ( #15, #47 ) ;
#220 = EDGE_CURVE ( 'NONE', #296, #62, #215, .T. ) ;
#221 = COORDINATED_UNIVERSAL_TIME_OFFSET ( 1, 0, .AHEAD. ) ;
#222 = AXIS2_PLACEMENT_3D ( 'NONE', #195, #93, #41 ) ;
#223 = PRODUCT ( 'c1ad', 'c1ad', '', ( #128 ) ) ;
#224 = ORIENTED_EDGE ( 'NONE', *, *, #238, .T. ) ;
#225 = CIRCLE ( 'NONE', #32, 2.500000000000000000 ) ;
#226 = PLANE ( 'NONE',  #52 ) ;
#227 = EDGE_CURVE ( 'NONE', #175, #230, #45, .T. ) ;
#228 = DIRECTION ( 'NONE',  ( 1.000000000000000000, 0.000000000000000000, 0.000000000000000000 ) ) ;
#229 = CARTESIAN_POINT ( 'NONE',  ( -1.450000000000000178, 1.775737858763662409E-16, 1.999999999999989564 ) ) ;
#230 = VERTEX_POINT ( 'NONE', #237 ) ;
#231 = APPLICATION_CONTEXT ( 'configuration controlled 3d designs of mechanical parts and assemblies' ) ;
#232 = AXIS2_PLACEMENT_3D ( 'NONE', #306, #38, #302 ) ;
#233 = CARTESIAN_POINT ( 'NONE',  ( 0.000000000000000000, 0.000000000000000000, 2.199999999999979750 ) ) ;
#234 = CYLINDRICAL_SURFACE ( 'NONE', #117, 2.500000000000000000 ) ;
#235 = DIRECTION ( 'NONE',  ( 1.000000000000000000, 0.000000000000000000, 0.000000000000000000 ) ) ;
#236 = CARTESIAN_POINT ( 'NONE',  ( 0.000000000000000000, 0.000000000000000000, 0.000000000000000000 ) ) ;
#237 = CARTESIAN_POINT ( 'NONE',  ( -1.250000000000000000, 0.000000000000000000, 2.199999999999979750 ) ) ;
#238 = EDGE_CURVE ( 'NONE', #230, #62, #188, .T. ) ;
#239 = CARTESIAN_POINT ( 'NONE',  ( -2.500000000000000000, 0.000000000000000000, 0.000000000000000000 ) ) ;
#240 = CALENDAR_DATE ( 2022, 7, 7 ) ;
#241 = APPROVAL_PERSON_ORGANIZATION ( #46, #283, #157 ) ;
#242 =( LENGTH_UNIT ( ) NAMED_UNIT ( * ) SI_UNIT ( .MILLI., .METRE. ) );
#243 = APPROVAL_STATUS ( 'not_yet_approved' ) ;
#244 = EDGE_LOOP ( 'NONE', ( #265, #247, #174, #179 ) ) ;
#245 = APPROVAL_PERSON_ORGANIZATION ( #287, #279, #77 ) ;
#246 = COORDINATED_UNIVERSAL_TIME_OFFSET ( 1, 0, .AHEAD. ) ;
#247 = ORIENTED_EDGE ( 'NONE', *, *, #69, .T. ) ;
#248 = ADVANCED_FACE ( 'NONE', ( #164 ), #140, .T. ) ;
#249 = CARTESIAN_POINT ( 'NONE',  ( 0.000000000000000000, 0.000000000000000000, 317.0000000000000000 ) ) ;
#250 = CC_DESIGN_APPROVAL ( #279, ( #67 ) ) ;
#251 = FACE_OUTER_BOUND ( 'NONE', #202, .T. ) ;
#252 = ADVANCED_FACE ( 'NONE', ( #97 ), #20, .T. ) ;
#253 = ORIENTED_EDGE ( 'NONE', *, *, #56, .T. ) ;
#254 = ORIENTED_EDGE ( 'NONE', *, *, #98, .F. ) ;
#255 = AXIS2_PLACEMENT_3D ( 'NONE', #36, #10, #266 ) ;
#256 = CARTESIAN_POINT ( 'NONE',  ( 0.000000000000000000, 0.000000000000000000, 317.0000000000000000 ) ) ;
#257 = CARTESIAN_POINT ( 'NONE',  ( 2.500000000000000000, 3.061616997868383141E-16, 2.000000000000000000 ) ) ;
#258 = CARTESIAN_POINT ( 'NONE',  ( 0.000000000000000000, 0.000000000000000000, 2.000000000000000000 ) ) ;
#259 = CARTESIAN_POINT ( 'NONE',  ( 0.000000000000000000, 0.000000000000000000, 2.199999999999979750 ) ) ;
#260 = CARTESIAN_POINT ( 'NONE',  ( 0.000000000000000000, 0.000000000000000000, 317.0000000000000000 ) ) ;
#261 = PERSON_AND_ORGANIZATION ( #15, #47 ) ;
#262 = PERSON_AND_ORGANIZATION ( #15, #47 ) ;
#263 = EDGE_LOOP ( 'NONE', ( #55, #288 ) ) ;
#264 = ADVANCED_BREP_SHAPE_REPRESENTATION ( 'c1ad', ( #78, #96 ), #209 ) ;
#265 = ORIENTED_EDGE ( 'NONE', *, *, #141, .F. ) ;
#266 = DIRECTION ( 'NONE',  ( 1.000000000000000000, 0.000000000000000000, -0.000000000000000000 ) ) ;
#267 = AXIS2_PLACEMENT_3D ( 'NONE', #249, #293, #83 ) ;
#268 = AXIS2_PLACEMENT_3D ( 'NONE', #260, #278, #40 ) ;
#269 = DIRECTION ( 'NONE',  ( 1.000000000000000000, 0.000000000000000000, 0.000000000000000000 ) ) ;
#270 = EDGE_CURVE ( 'NONE', #178, #207, #92, .T. ) ;
#271 = CARTESIAN_POINT ( 'NONE',  ( 2.500000000000000000, 3.061616997868383141E-16, 2.000000000000000000 ) ) ;
#272 = ORIENTED_EDGE ( 'NONE', *, *, #303, .F. ) ;
#273 = FACE_OUTER_BOUND ( 'NONE', #244, .T. ) ;
#274 = PRODUCT_DEFINITION ( 'NEZNÁMÝ', '', #307, #168 ) ;
#275 = LOCAL_TIME ( 12, 32, 41.00000000000000000, #221 ) ;
#276 = CARTESIAN_POINT ( 'NONE',  ( -1.250000000000000000, 0.000000000000000000, 317.0000000000000000 ) ) ;
#277 = PLANE ( 'NONE',  #194 ) ;
#278 = DIRECTION ( 'NONE',  ( 0.000000000000000000, 0.000000000000000000, 1.000000000000000000 ) ) ;
#279 = APPROVAL ( #123, 'NEURÈENÝ' ) ;
#280 = UNCERTAINTY_MEASURE_WITH_UNIT (LENGTH_MEASURE( 1.000000000000000082E-05 ), #242, 'distance_accuracy_value', 'NONE');
#281 = DIRECTION ( 'NONE',  ( 1.000000000000000000, 0.000000000000000000, 0.000000000000000000 ) ) ;
#282 = CARTESIAN_POINT ( 'NONE',  ( 1.450000000000000178, 0.000000000000000000, 1.999999999999989564 ) ) ;
#283 = APPROVAL ( #152, 'NEURÈENÝ' ) ;
#284 = COORDINATED_UNIVERSAL_TIME_OFFSET ( 1, 0, .AHEAD. ) ;
#285 = VECTOR ( 'NONE', #66, 1000.000000000000000 ) ;
#286 = ORIENTED_EDGE ( 'NONE', *, *, #184, .T. ) ;
#287 = PERSON_AND_ORGANIZATION ( #15, #47 ) ;
#288 = ORIENTED_EDGE ( 'NONE', *, *, #298, .T. ) ;
#289 = APPROVAL_DATE_TIME ( #290, #283 ) ;
#290 = DATE_AND_TIME ( #124, #37 ) ;
#291 = ORIENTED_EDGE ( 'NONE', *, *, #184, .F. ) ;
#292 = CIRCLE ( 'NONE', #59, 1.250000000000000000 ) ;
#293 = DIRECTION ( 'NONE',  ( -0.000000000000000000, -0.000000000000000000, -1.000000000000000000 ) ) ;
#294 = CARTESIAN_POINT ( 'NONE',  ( -2.500000000000000000, 0.000000000000000000, 2.000000000000000000 ) ) ;
#295 = DIRECTION ( 'NONE',  ( 0.000000000000000000, 0.000000000000000000, 1.000000000000000000 ) ) ;
#296 = VERTEX_POINT ( 'NONE', #282 ) ;
#297 = CARTESIAN_POINT ( 'NONE',  ( 0.000000000000000000, 0.000000000000000000, 2.000000000000000000 ) ) ;
#298 = EDGE_CURVE ( 'NONE', #199, #80, #139, .T. ) ;
#299 = CARTESIAN_POINT ( 'NONE',  ( 1.250000000000000000, 1.530808498934191571E-16, 317.0000000000000000 ) ) ;
#300 = APPLICATION_CONTEXT ( 'configuration controlled 3d designs of mechanical parts and assemblies' ) ;
#301 = AXIS2_PLACEMENT_3D ( 'NONE', #213, #193, #64 ) ;
#302 = DIRECTION ( 'NONE',  ( -1.000000000000000000, 1.224646799147353207E-16, 0.000000000000000000 ) ) ;
#303 = EDGE_CURVE ( 'NONE', #230, #175, #292, .T. ) ;
#304 = DIRECTION ( 'NONE',  ( 0.000000000000000000, 0.000000000000000000, 1.000000000000000000 ) ) ;
#305 = DIRECTION ( 'NONE',  ( 0.000000000000000000, 0.000000000000000000, 1.000000000000000000 ) ) ;
#306 = CARTESIAN_POINT ( 'NONE',  ( -1.450000000000000178, 1.775737858763662163E-16, 2.199999999999979750 ) ) ;
#307 = PRODUCT_DEFINITION_FORMATION_WITH_SPECIFIED_SOURCE ( 'LIBOVOLNÝ', '', #223, .NOT_KNOWN. ) ;
ENDSEC;
END-ISO-10303-21;
