ISO-10303-21;
HEADER;
FILE_DESCRIPTION (( 'STEP AP203' ),
    '1' );
FILE_NAME ('a5f7.STEP',
    '2022-07-07T10:14:14',
    ( '' ),
    ( '' ),
    'SwSTEP 2.0',
    'SolidWorks 2019',
    '' );
FILE_SCHEMA (( 'CONFIG_CONTROL_DESIGN' ));
ENDSEC;

DATA;
#1 = FACE_OUTER_BOUND ( 'NONE', #298, .T. ) ;
#2 = AXIS2_PLACEMENT_3D ( 'NONE', #293, #49, #79 ) ;
#3 = ORIENTED_EDGE ( 'NONE', *, *, #58, .T. ) ;
#4 = AXIS2_PLACEMENT_3D ( 'NONE', #185, #306, #255 ) ;
#5 = ORIENTED_EDGE ( 'NONE', *, *, #58, .F. ) ;
#6 = APPLICATION_CONTEXT ( 'configuration controlled 3d designs of mechanical parts and assemblies' ) ;
#7 = PERSON_AND_ORGANIZATION_ROLE ( 'design_owner' ) ;
#8 = ORIENTED_EDGE ( 'NONE', *, *, #146, .T. ) ;
#9 = DIRECTION ( 'NONE',  ( 1.000000000000000000, 0.000000000000000000, 0.000000000000000000 ) ) ;
#10 = APPROVAL_STATUS ( 'not_yet_approved' ) ;
#11 = AXIS2_PLACEMENT_3D ( 'NONE', #65, #59, #109 ) ;
#12 = CARTESIAN_POINT ( 'NONE',  ( 3.000000000000000444, 3.673940397442060361E-16, 5.199999999999996625 ) ) ;
#13 = APPROVAL_STATUS ( 'not_yet_approved' ) ;
#14 = DIRECTION ( 'NONE',  ( -0.000000000000000000, -0.000000000000000000, -1.000000000000000000 ) ) ;
#15 = FACE_OUTER_BOUND ( 'NONE', #214, .T. ) ;
#16 = AXIS2_PLACEMENT_3D ( 'NONE', #92, #43, #234 ) ;
#17 = CC_DESIGN_PERSON_AND_ORGANIZATION_ASSIGNMENT ( #220, #143, ( #47 ) ) ;
#18 = PLANE ( 'NONE',  #164 ) ;
#19 = CARTESIAN_POINT ( 'NONE',  ( 6.000000000000000888, 7.347880794884120722E-16, 5.000000000000000000 ) ) ;
#20 = FACE_OUTER_BOUND ( 'NONE', #209, .T. ) ;
#21 = DIRECTION ( 'NONE',  ( 1.000000000000000000, 0.000000000000000000, 0.000000000000000000 ) ) ;
#22 = CARTESIAN_POINT ( 'NONE',  ( 0.000000000000000000, 0.000000000000000000, 5.199999999999996625 ) ) ;
#23 = EDGE_LOOP ( 'NONE', ( #240, #77, #307, #264 ) ) ;
#24 = AXIS2_PLACEMENT_3D ( 'NONE', #304, #108, #40 ) ;
#25 = CARTESIAN_POINT ( 'NONE',  ( 0.000000000000000000, 0.000000000000000000, 105.0000000000000142 ) ) ;
#26 = ORIENTED_EDGE ( 'NONE', *, *, #134, .F. ) ;
#27 = ADVANCED_FACE ( 'NONE', ( #1 ), #254, .F. ) ;
#28 = APPLICATION_CONTEXT ( 'configuration controlled 3d designs of mechanical parts and assemblies' ) ;
#29 = CYLINDRICAL_SURFACE ( 'NONE', #212, 3.000000000000000444 ) ;
#30 = ORIENTED_EDGE ( 'NONE', *, *, #123, .T. ) ;
#31 = ADVANCED_FACE ( 'NONE', ( #15 ), #52, .F. ) ;
#32 = AXIS2_PLACEMENT_3D ( 'NONE', #159, #201, #300 ) ;
#33 = MECHANICAL_CONTEXT ( 'NONE', #6, 'mechanical' ) ;
#34 = MANIFOLD_SOLID_BREP ( 'Zaoblit1', #73 ) ;
#35 = PERSON_AND_ORGANIZATION ( #215, #163 ) ;
#36 = CARTESIAN_POINT ( 'NONE',  ( 6.000000000000000888, 7.347880794884120722E-16, 0.000000000000000000 ) ) ;
#37 = ORIENTED_EDGE ( 'NONE', *, *, #55, .F. ) ;
#38 = EDGE_CURVE ( 'NONE', #287, #71, #195, .T. ) ;
#39 = DIRECTION ( 'NONE',  ( 1.000000000000000000, 0.000000000000000000, 0.000000000000000000 ) ) ;
#40 = DIRECTION ( 'NONE',  ( 1.000000000000000000, 0.000000000000000000, 0.000000000000000000 ) ) ;
#41 = CARTESIAN_POINT ( 'NONE',  ( 3.200000000000000622, 0.000000000000000000, 5.199999999999996625 ) ) ;
#42 = DIRECTION ( 'NONE',  ( -0.000000000000000000, -0.000000000000000000, -1.000000000000000000 ) ) ;
#43 = DIRECTION ( 'NONE',  ( -0.000000000000000000, -0.000000000000000000, -1.000000000000000000 ) ) ;
#44 = ORIENTED_EDGE ( 'NONE', *, *, #263, .F. ) ;
#45 = AXIS2_PLACEMENT_3D ( 'NONE', #22, #183, #104 ) ;
#46 = ORIENTED_EDGE ( 'NONE', *, *, #266, .T. ) ;
#47 = PRODUCT_DEFINITION ( 'NEZNÁMÝ', '', #94, #271 ) ;
#48 = CARTESIAN_POINT ( 'NONE',  ( 0.000000000000000000, 0.000000000000000000, 0.000000000000000000 ) ) ;
#49 = DIRECTION ( 'NONE',  ( 0.000000000000000000, 0.000000000000000000, 1.000000000000000000 ) ) ;
#50 = ORIENTED_EDGE ( 'NONE', *, *, #116, .T. ) ;
#51 = APPROVAL_DATE_TIME ( #267, #117 ) ;
#52 = TOROIDAL_SURFACE ( 'NONE', #24, 3.200000000000000622, 0.2000000000000000111 ) ;
#53 = VECTOR ( 'NONE', #14, 1000.000000000000000 ) ;
#54 = DATE_TIME_ROLE ( 'classification_date' ) ;
#55 = EDGE_CURVE ( 'NONE', #287, #170, #87, .T. ) ;
#56 = CIRCLE ( 'NONE', #289, 3.000000000000000444 ) ;
#57 = COORDINATED_UNIVERSAL_TIME_OFFSET ( 1, 0, .AHEAD. ) ;
#58 = EDGE_CURVE ( 'NONE', #168, #165, #269, .T. ) ;
#59 = DIRECTION ( 'NONE',  ( 0.000000000000000000, 0.000000000000000000, 1.000000000000000000 ) ) ;
#60 = CC_DESIGN_PERSON_AND_ORGANIZATION_ASSIGNMENT ( #177, #246, ( #94 ) ) ;
#61 = CARTESIAN_POINT ( 'NONE',  ( 0.000000000000000000, 0.000000000000000000, 5.000000000000000000 ) ) ;
#62 = VECTOR ( 'NONE', #68, 1000.000000000000000 ) ;
#63 = FACE_OUTER_BOUND ( 'NONE', #166, .T. ) ;
#64 = ORIENTED_EDGE ( 'NONE', *, *, #245, .F. ) ;
#65 = CARTESIAN_POINT ( 'NONE',  ( 0.000000000000000000, 0.000000000000000000, 105.0000000000000142 ) ) ;
#66 = DIRECTION ( 'NONE',  ( 1.000000000000000000, 0.000000000000000000, 0.000000000000000000 ) ) ;
#67 = DIRECTION ( 'NONE',  ( 1.000000000000000000, 0.000000000000000000, 0.000000000000000000 ) ) ;
#68 = DIRECTION ( 'NONE',  ( -0.000000000000000000, -0.000000000000000000, -1.000000000000000000 ) ) ;
#69 = APPROVAL_PERSON_ORGANIZATION ( #290, #117, #144 ) ;
#70 = AXIS2_PLACEMENT_3D ( 'NONE', #277, #253, #39 ) ;
#71 = VERTEX_POINT ( 'NONE', #19 ) ;
#72 = ADVANCED_FACE ( 'NONE', ( #160 ), #91, .T. ) ;
#73 = CLOSED_SHELL ( 'NONE', ( #137, #250, #72, #96, #145, #27, #292, #161, #31 ) ) ;
#74 = ORIENTED_EDGE ( 'NONE', *, *, #188, .T. ) ;
#75 = APPROVAL_PERSON_ORGANIZATION ( #241, #272, #219 ) ;
#76 = CARTESIAN_POINT ( 'NONE',  ( -6.000000000000000888, 0.000000000000000000, 5.000000000000000000 ) ) ;
#77 = ORIENTED_EDGE ( 'NONE', *, *, #38, .F. ) ;
#78 = CALENDAR_DATE ( 2022, 7, 7 ) ;
#79 = DIRECTION ( 'NONE',  ( 1.000000000000000000, 0.000000000000000000, 0.000000000000000000 ) ) ;
#80 = UNCERTAINTY_MEASURE_WITH_UNIT (LENGTH_MEASURE( 1.000000000000000082E-05 ), #216, 'distance_accuracy_value', 'NONE');
#81 = CC_DESIGN_APPROVAL ( #272, ( #94 ) ) ;
#82 = AXIS2_PLACEMENT_3D ( 'NONE', #206, #244, #99 ) ;
#83 = EDGE_CURVE ( 'NONE', #170, #128, #111, .T. ) ;
#84 = EDGE_CURVE ( 'NONE', #71, #128, #158, .T. ) ;
#85 = COORDINATED_UNIVERSAL_TIME_OFFSET ( 1, 0, .AHEAD. ) ;
#86 = FACE_OUTER_BOUND ( 'NONE', #118, .T. ) ;
#87 = LINE ( 'NONE', #231, #62 ) ;
#88 = LINE ( 'NONE', #180, #247 ) ;
#89 = DIRECTION ( 'NONE',  ( 1.000000000000000000, 0.000000000000000000, -0.000000000000000000 ) ) ;
#90 = PLANE ( 'NONE',  #32 ) ;
#91 = CYLINDRICAL_SURFACE ( 'NONE', #125, 6.000000000000000888 ) ;
#92 = CARTESIAN_POINT ( 'NONE',  ( 0.000000000000000000, 0.000000000000000000, 5.000000000000000000 ) ) ;
#93 = ORIENTED_EDGE ( 'NONE', *, *, #188, .F. ) ;
#94 = PRODUCT_DEFINITION_FORMATION_WITH_SPECIFIED_SOURCE ( 'LIBOVOLNÝ', '', #205, .NOT_KNOWN. ) ;
#95 = EDGE_LOOP ( 'NONE', ( #281, #153, #172, #37 ) ) ;
#96 = ADVANCED_FACE ( 'NONE', ( #233 ), #113, .T. ) ;
#97 = ORIENTED_EDGE ( 'NONE', *, *, #116, .F. ) ;
#98 = APPLICATION_PROTOCOL_DEFINITION ( 'international standard', 'config_control_design', 1994, #28 ) ;
#99 = DIRECTION ( 'NONE',  ( -1.000000000000000000, 0.000000000000000000, 0.000000000000000000 ) ) ;
#100 = DATE_AND_TIME ( #101, #138 ) ;
#101 = CALENDAR_DATE ( 2022, 7, 7 ) ;
#102 = CC_DESIGN_PERSON_AND_ORGANIZATION_ASSIGNMENT ( #120, #7, ( #205 ) ) ;
#103 = CC_DESIGN_APPROVAL ( #117, ( #47 ) ) ;
#104 = DIRECTION ( 'NONE',  ( 1.000000000000000000, 0.000000000000000000, 0.000000000000000000 ) ) ;
#105 = APPROVAL_DATE_TIME ( #151, #200 ) ;
#106 = LOCAL_TIME ( 12, 14, 14.00000000000000000, #85 ) ;
#107 = CARTESIAN_POINT ( 'NONE',  ( 0.000000000000000000, 0.000000000000000000, 5.199999999999996625 ) ) ;
#108 = DIRECTION ( 'NONE',  ( 0.000000000000000000, 0.000000000000000000, 1.000000000000000000 ) ) ;
#109 = DIRECTION ( 'NONE',  ( 1.000000000000000000, 0.000000000000000000, 0.000000000000000000 ) ) ;
#110 = ORIENTED_EDGE ( 'NONE', *, *, #156, .F. ) ;
#111 = CIRCLE ( 'NONE', #262, 6.000000000000000888 ) ;
#112 = CYLINDRICAL_SURFACE ( 'NONE', #82, 3.000000000000000444 ) ;
#113 = CYLINDRICAL_SURFACE ( 'NONE', #148, 6.000000000000000888 ) ;
#114 = DIRECTION ( 'NONE',  ( 0.000000000000000000, 0.000000000000000000, 1.000000000000000000 ) ) ;
#115 = VERTEX_POINT ( 'NONE', #12 ) ;
#116 = EDGE_CURVE ( 'NONE', #204, #168, #88, .T. ) ;
#117 = APPROVAL ( #286, 'NEURÈENÝ' ) ;
#118 = EDGE_LOOP ( 'NONE', ( #121, #30 ) ) ;
#119 = DIRECTION ( 'NONE',  ( 0.000000000000000000, 0.000000000000000000, 1.000000000000000000 ) ) ;
#120 = PERSON_AND_ORGANIZATION ( #215, #163 ) ;
#121 = ORIENTED_EDGE ( 'NONE', *, *, #38, .T. ) ;
#122 = COORDINATED_UNIVERSAL_TIME_OFFSET ( 1, 0, .AHEAD. ) ;
#123 = EDGE_CURVE ( 'NONE', #71, #287, #162, .T. ) ;
#124 = DATE_AND_TIME ( #78, #222 ) ;
#125 = AXIS2_PLACEMENT_3D ( 'NONE', #61, #184, #258 ) ;
#126 = CALENDAR_DATE ( 2022, 7, 7 ) ;
#127 = FACE_OUTER_BOUND ( 'NONE', #218, .T. ) ;
#128 = VERTEX_POINT ( 'NONE', #36 ) ;
#129 = DIRECTION ( 'NONE',  ( 1.000000000000000000, 0.000000000000000000, -0.000000000000000000 ) ) ;
#130 = DIRECTION ( 'NONE',  ( 0.000000000000000000, 0.000000000000000000, 1.000000000000000000 ) ) ;
#131 = AXIS2_PLACEMENT_3D ( 'NONE', #41, #132, #232 ) ;
#132 = DIRECTION ( 'NONE',  ( 0.000000000000000000, -1.000000000000000000, 0.000000000000000000 ) ) ;
#133 = CARTESIAN_POINT ( 'NONE',  ( 0.000000000000000000, 0.000000000000000000, 0.000000000000000000 ) ) ;
#134 = EDGE_CURVE ( 'NONE', #115, #168, #279, .T. ) ;
#135 = DIRECTION ( 'NONE',  ( -0.000000000000000000, -0.000000000000000000, -1.000000000000000000 ) ) ;
#136 = ORIENTED_EDGE ( 'NONE', *, *, #210, .F. ) ;
#137 = ADVANCED_FACE ( 'NONE', ( #63 ), #259, .F. ) ;
#138 = LOCAL_TIME ( 12, 14, 14.00000000000000000, #122 ) ;
#139 = CARTESIAN_POINT ( 'NONE',  ( 0.000000000000000000, 0.000000000000000000, 5.199999999999996625 ) ) ;
#140 = ADVANCED_BREP_SHAPE_REPRESENTATION ( 'a5f7', ( #34, #199 ), #288 ) ;
#141 = CIRCLE ( 'NONE', #11, 3.000000000000000444 ) ;
#142 = DIRECTION ( 'NONE',  ( -0.000000000000000000, -0.000000000000000000, -1.000000000000000000 ) ) ;
#143 = PERSON_AND_ORGANIZATION_ROLE ( 'creator' ) ;
#144 = APPROVAL_ROLE ( '' ) ;
#145 = ADVANCED_FACE ( 'NONE', ( #275, #86 ), #18, .T. ) ;
#146 = EDGE_CURVE ( 'NONE', #260, #204, #141, .T. ) ;
#147 = LOCAL_TIME ( 12, 14, 14.00000000000000000, #270 ) ;
#148 = AXIS2_PLACEMENT_3D ( 'NONE', #224, #280, #273 ) ;
#149 = SECURITY_CLASSIFICATION_LEVEL ( 'unclassified' ) ;
#150 = CIRCLE ( 'NONE', #70, 3.200000000000000622 ) ;
#151 = DATE_AND_TIME ( #295, #106 ) ;
#152 = CARTESIAN_POINT ( 'NONE',  ( -3.000000000000000444, 0.000000000000000000, 5.199999999999996625 ) ) ;
#153 = ORIENTED_EDGE ( 'NONE', *, *, #84, .T. ) ;
#154 = CARTESIAN_POINT ( 'NONE',  ( 0.000000000000000000, 0.000000000000000000, 5.000000000000000000 ) ) ;
#155 = CARTESIAN_POINT ( 'NONE',  ( 0.000000000000000000, 0.000000000000000000, 0.000000000000000000 ) ) ;
#156 = EDGE_CURVE ( 'NONE', #204, #260, #56, .T. ) ;
#157 = CARTESIAN_POINT ( 'NONE',  ( 3.200000000000000622, 0.000000000000000000, 4.999999999999998224 ) ) ;
#158 = LINE ( 'NONE', #256, #261 ) ;
#159 = CARTESIAN_POINT ( 'NONE',  ( 0.000000000000000000, 0.000000000000000000, 105.0000000000000142 ) ) ;
#160 = FACE_OUTER_BOUND ( 'NONE', #95, .T. ) ;
#161 = ADVANCED_FACE ( 'NONE', ( #127 ), #90, .T. ) ;
#162 = CIRCLE ( 'NONE', #4, 6.000000000000000888 ) ;
#163 = ORGANIZATION ( 'NEURÈENÝ', 'NEURÈENÝ', '' ) ;
#164 = AXIS2_PLACEMENT_3D ( 'NONE', #154, #114, #129 ) ;
#165 = VERTEX_POINT ( 'NONE', #178 ) ;
#166 = EDGE_LOOP ( 'NONE', ( #276, #3, #93, #64 ) ) ;
#167 = DIRECTION ( 'NONE',  ( 1.000000000000000000, 0.000000000000000000, 0.000000000000000000 ) ) ;
#168 = VERTEX_POINT ( 'NONE', #152 ) ;
#169 = CALENDAR_DATE ( 2022, 7, 7 ) ;
#170 = VERTEX_POINT ( 'NONE', #257 ) ;
#171 = CARTESIAN_POINT ( 'NONE',  ( 3.000000000000000444, 3.673940397442060361E-16, 105.0000000000000142 ) ) ;
#172 = ORIENTED_EDGE ( 'NONE', *, *, #263, .T. ) ;
#173 = CC_DESIGN_PERSON_AND_ORGANIZATION_ASSIGNMENT ( #296, #198, ( #242 ) ) ;
#174 = CC_DESIGN_SECURITY_CLASSIFICATION ( #242, ( #94 ) ) ;
#175 = PERSON_AND_ORGANIZATION_ROLE ( 'creator' ) ;
#176 = EDGE_CURVE ( 'NONE', #165, #227, #150, .T. ) ;
#177 = PERSON_AND_ORGANIZATION ( #215, #163 ) ;
#178 = CARTESIAN_POINT ( 'NONE',  ( -3.200000000000000622, 3.918869757271530953E-16, 4.999999999999998224 ) ) ;
#179 = DIRECTION ( 'NONE',  ( -1.000000000000000000, 1.224646799147353207E-16, 0.000000000000000000 ) ) ;
#180 = CARTESIAN_POINT ( 'NONE',  ( -3.000000000000000444, 0.000000000000000000, 105.0000000000000142 ) ) ;
#181 = CC_DESIGN_PERSON_AND_ORGANIZATION_ASSIGNMENT ( #291, #175, ( #94 ) ) ;
#182 = ORIENTED_EDGE ( 'NONE', *, *, #176, .F. ) ;
#183 = DIRECTION ( 'NONE',  ( 0.000000000000000000, 0.000000000000000000, 1.000000000000000000 ) ) ;
#184 = DIRECTION ( 'NONE',  ( -0.000000000000000000, -0.000000000000000000, -1.000000000000000000 ) ) ;
#185 = CARTESIAN_POINT ( 'NONE',  ( 0.000000000000000000, 0.000000000000000000, 5.000000000000000000 ) ) ;
#186 = CARTESIAN_POINT ( 'NONE',  ( 0.000000000000000000, 0.000000000000000000, 5.000000000000000000 ) ) ;
#187 = DIRECTION ( 'NONE',  ( 0.000000000000000000, 0.000000000000000000, 1.000000000000000000 ) ) ;
#188 = EDGE_CURVE ( 'NONE', #227, #165, #243, .T. ) ;
#189 = AXIS2_PLACEMENT_3D ( 'NONE', #155, #187, #89 ) ;
#190 = FACE_OUTER_BOUND ( 'NONE', #193, .T. ) ;
#191 = ORIENTED_EDGE ( 'NONE', *, *, #245, .T. ) ;
#192 = APPLICATION_PROTOCOL_DEFINITION ( 'international standard', 'config_control_design', 1994, #6 ) ;
#193 = EDGE_LOOP ( 'NONE', ( #136, #110, #50, #46 ) ) ;
#194 = APPROVAL_DATE_TIME ( #100, #272 ) ;
#195 = CIRCLE ( 'NONE', #225, 6.000000000000000888 ) ;
#196 = DIRECTION ( 'NONE',  ( -1.000000000000000000, 0.000000000000000000, 0.000000000000000000 ) ) ;
#197 = APPROVAL_ROLE ( '' ) ;
#198 = PERSON_AND_ORGANIZATION_ROLE ( 'classification_officer' ) ;
#199 = AXIS2_PLACEMENT_3D ( 'NONE', #48, #119, #167 ) ;
#200 = APPROVAL ( #13, 'NEURÈENÝ' ) ;
#201 = DIRECTION ( 'NONE',  ( 0.000000000000000000, 0.000000000000000000, 1.000000000000000000 ) ) ;
#202 = DIRECTION ( 'NONE',  ( 1.224646799147353207E-16, 1.000000000000000000, -0.000000000000000000 ) ) ;
#203 = DIRECTION ( 'NONE',  ( 1.000000000000000000, 0.000000000000000000, 0.000000000000000000 ) ) ;
#204 = VERTEX_POINT ( 'NONE', #251 ) ;
#205 = PRODUCT ( 'a5f7', 'a5f7', '', ( #33 ) ) ;
#206 = CARTESIAN_POINT ( 'NONE',  ( 0.000000000000000000, 0.000000000000000000, 105.0000000000000142 ) ) ;
#207 = ORIENTED_EDGE ( 'NONE', *, *, #176, .T. ) ;
#208 = LINE ( 'NONE', #226, #53 ) ;
#209 = EDGE_LOOP ( 'NONE', ( #283, #237, #252, #97 ) ) ;
#210 = EDGE_CURVE ( 'NONE', #260, #115, #208, .T. ) ;
#211 = CC_DESIGN_DATE_AND_TIME_ASSIGNMENT ( #248, #54, ( #242 ) ) ;
#212 = AXIS2_PLACEMENT_3D ( 'NONE', #25, #142, #196 ) ;
#213 =( NAMED_UNIT ( * ) PLANE_ANGLE_UNIT ( ) SI_UNIT ( $, .RADIAN. ) );
#214 = EDGE_LOOP ( 'NONE', ( #5, #26, #191, #182 ) ) ;
#215 = PERSON ( 'NEURÈENÝ', 'NEURÈENÝ', 'NEURÈENÝ', ('NEURÈENÝ'), ('NEURÈENÝ'), ('NEURÈENÝ') ) ;
#216 =( LENGTH_UNIT ( ) NAMED_UNIT ( * ) SI_UNIT ( .MILLI., .METRE. ) );
#217 = COORDINATED_UNIVERSAL_TIME_OFFSET ( 1, 0, .AHEAD. ) ;
#218 = EDGE_LOOP ( 'NONE', ( #284, #8 ) ) ;
#219 = APPROVAL_ROLE ( '' ) ;
#220 = PERSON_AND_ORGANIZATION ( #215, #163 ) ;
#221 = AXIS2_PLACEMENT_3D ( 'NONE', #301, #202, #179 ) ;
#222 = LOCAL_TIME ( 12, 14, 14.00000000000000000, #217 ) ;
#223 = SHAPE_DEFINITION_REPRESENTATION ( #305, #140 ) ;
#224 = CARTESIAN_POINT ( 'NONE',  ( 0.000000000000000000, 0.000000000000000000, 5.000000000000000000 ) ) ;
#225 = AXIS2_PLACEMENT_3D ( 'NONE', #186, #130, #21 ) ;
#226 = CARTESIAN_POINT ( 'NONE',  ( 3.000000000000000444, 3.673940397442060361E-16, 105.0000000000000142 ) ) ;
#227 = VERTEX_POINT ( 'NONE', #157 ) ;
#228 = CIRCLE ( 'NONE', #265, 3.000000000000000444 ) ;
#229 = CIRCLE ( 'NONE', #131, 0.1999999999999996503 ) ;
#230 = CARTESIAN_POINT ( 'NONE',  ( 0.000000000000000000, 0.000000000000000000, 105.0000000000000142 ) ) ;
#231 = CARTESIAN_POINT ( 'NONE',  ( -6.000000000000000888, 0.000000000000000000, 5.000000000000000000 ) ) ;
#232 = DIRECTION ( 'NONE',  ( 0.000000000000000000, 0.000000000000000000, -1.000000000000000000 ) ) ;
#233 = FACE_OUTER_BOUND ( 'NONE', #23, .T. ) ;
#234 = DIRECTION ( 'NONE',  ( 1.000000000000000000, 0.000000000000000000, 0.000000000000000000 ) ) ;
#235 = EDGE_LOOP ( 'NONE', ( #74, #207 ) ) ;
#236 = CC_DESIGN_DATE_AND_TIME_ASSIGNMENT ( #124, #268, ( #47 ) ) ;
#237 = ORIENTED_EDGE ( 'NONE', *, *, #210, .T. ) ;
#238 = CIRCLE ( 'NONE', #2, 6.000000000000000888 ) ;
#239 = DIRECTION ( 'NONE',  ( 0.000000000000000000, 0.000000000000000000, 1.000000000000000000 ) ) ;
#240 = ORIENTED_EDGE ( 'NONE', *, *, #84, .F. ) ;
#241 = PERSON_AND_ORGANIZATION ( #215, #163 ) ;
#242 = SECURITY_CLASSIFICATION ( '', '', #149 ) ;
#243 = CIRCLE ( 'NONE', #16, 3.200000000000000622 ) ;
#244 = DIRECTION ( 'NONE',  ( -0.000000000000000000, -0.000000000000000000, -1.000000000000000000 ) ) ;
#245 = EDGE_CURVE ( 'NONE', #115, #227, #229, .T. ) ;
#246 = PERSON_AND_ORGANIZATION_ROLE ( 'design_supplier' ) ;
#247 = VECTOR ( 'NONE', #135, 1000.000000000000000 ) ;
#248 = DATE_AND_TIME ( #126, #282 ) ;
#249 = APPROVAL_PERSON_ORGANIZATION ( #35, #200, #197 ) ;
#250 = ADVANCED_FACE ( 'NONE', ( #20 ), #112, .T. ) ;
#251 = CARTESIAN_POINT ( 'NONE',  ( -3.000000000000000444, 0.000000000000000000, 105.0000000000000142 ) ) ;
#252 = ORIENTED_EDGE ( 'NONE', *, *, #134, .T. ) ;
#253 = DIRECTION ( 'NONE',  ( -0.000000000000000000, -0.000000000000000000, -1.000000000000000000 ) ) ;
#254 = PLANE ( 'NONE',  #189 ) ;
#255 = DIRECTION ( 'NONE',  ( 1.000000000000000000, 0.000000000000000000, 0.000000000000000000 ) ) ;
#256 = CARTESIAN_POINT ( 'NONE',  ( 6.000000000000000888, 7.347880794884120722E-16, 5.000000000000000000 ) ) ;
#257 = CARTESIAN_POINT ( 'NONE',  ( -6.000000000000000888, 0.000000000000000000, 0.000000000000000000 ) ) ;
#258 = DIRECTION ( 'NONE',  ( -1.000000000000000000, 0.000000000000000000, 0.000000000000000000 ) ) ;
#259 = TOROIDAL_SURFACE ( 'NONE', #294, 3.200000000000000622, 0.2000000000000000111 ) ;
#260 = VERTEX_POINT ( 'NONE', #171 ) ;
#261 = VECTOR ( 'NONE', #42, 1000.000000000000000 ) ;
#262 = AXIS2_PLACEMENT_3D ( 'NONE', #133, #278, #66 ) ;
#263 = EDGE_CURVE ( 'NONE', #128, #170, #238, .T. ) ;
#264 = ORIENTED_EDGE ( 'NONE', *, *, #83, .T. ) ;
#265 = AXIS2_PLACEMENT_3D ( 'NONE', #139, #239, #9 ) ;
#266 = EDGE_CURVE ( 'NONE', #168, #115, #228, .T. ) ;
#267 = DATE_AND_TIME ( #169, #147 ) ;
#268 = DATE_TIME_ROLE ( 'creation_date' ) ;
#269 = CIRCLE ( 'NONE', #221, 0.2000000000000000944 ) ;
#270 = COORDINATED_UNIVERSAL_TIME_OFFSET ( 1, 0, .AHEAD. ) ;
#271 = DESIGN_CONTEXT ( 'detailed design', #28, 'design' ) ;
#272 = APPROVAL ( #10, 'NEURÈENÝ' ) ;
#273 = DIRECTION ( 'NONE',  ( -1.000000000000000000, 0.000000000000000000, 0.000000000000000000 ) ) ;
#274 = ORIENTED_EDGE ( 'NONE', *, *, #83, .F. ) ;
#275 = FACE_BOUND ( 'NONE', #235, .T. ) ;
#276 = ORIENTED_EDGE ( 'NONE', *, *, #266, .F. ) ;
#277 = CARTESIAN_POINT ( 'NONE',  ( 0.000000000000000000, 0.000000000000000000, 5.000000000000000000 ) ) ;
#278 = DIRECTION ( 'NONE',  ( 0.000000000000000000, 0.000000000000000000, 1.000000000000000000 ) ) ;
#279 = CIRCLE ( 'NONE', #45, 3.000000000000000444 ) ;
#280 = DIRECTION ( 'NONE',  ( -0.000000000000000000, -0.000000000000000000, -1.000000000000000000 ) ) ;
#281 = ORIENTED_EDGE ( 'NONE', *, *, #123, .F. ) ;
#282 = LOCAL_TIME ( 12, 14, 14.00000000000000000, #57 ) ;
#283 = ORIENTED_EDGE ( 'NONE', *, *, #146, .F. ) ;
#284 = ORIENTED_EDGE ( 'NONE', *, *, #156, .T. ) ;
#285 =( NAMED_UNIT ( * ) SI_UNIT ( $, .STERADIAN. ) SOLID_ANGLE_UNIT ( ) );
#286 = APPROVAL_STATUS ( 'not_yet_approved' ) ;
#287 = VERTEX_POINT ( 'NONE', #76 ) ;
#288 =( GEOMETRIC_REPRESENTATION_CONTEXT ( 3 ) GLOBAL_UNCERTAINTY_ASSIGNED_CONTEXT ( ( #80 ) ) GLOBAL_UNIT_ASSIGNED_CONTEXT ( ( #216, #213, #285 ) ) REPRESENTATION_CONTEXT ( 'NONE', 'WORKASPACE' ) );
#289 = AXIS2_PLACEMENT_3D ( 'NONE', #230, #302, #203 ) ;
#290 = PERSON_AND_ORGANIZATION ( #215, #163 ) ;
#291 = PERSON_AND_ORGANIZATION ( #215, #163 ) ;
#292 = ADVANCED_FACE ( 'NONE', ( #190 ), #29, .T. ) ;
#293 = CARTESIAN_POINT ( 'NONE',  ( 0.000000000000000000, 0.000000000000000000, 0.000000000000000000 ) ) ;
#294 = AXIS2_PLACEMENT_3D ( 'NONE', #107, #297, #67 ) ;
#295 = CALENDAR_DATE ( 2022, 7, 7 ) ;
#296 = PERSON_AND_ORGANIZATION ( #215, #163 ) ;
#297 = DIRECTION ( 'NONE',  ( 0.000000000000000000, 0.000000000000000000, 1.000000000000000000 ) ) ;
#298 = EDGE_LOOP ( 'NONE', ( #274, #44 ) ) ;
#299 = CC_DESIGN_APPROVAL ( #200, ( #242 ) ) ;
#300 = DIRECTION ( 'NONE',  ( 1.000000000000000000, 0.000000000000000000, -0.000000000000000000 ) ) ;
#301 = CARTESIAN_POINT ( 'NONE',  ( -3.200000000000000622, 3.918869757271530953E-16, 5.199999999999996625 ) ) ;
#302 = DIRECTION ( 'NONE',  ( 0.000000000000000000, 0.000000000000000000, 1.000000000000000000 ) ) ;
#303 = PRODUCT_RELATED_PRODUCT_CATEGORY ( 'detail', '', ( #205 ) ) ;
#304 = CARTESIAN_POINT ( 'NONE',  ( 0.000000000000000000, 0.000000000000000000, 5.199999999999996625 ) ) ;
#305 = PRODUCT_DEFINITION_SHAPE ( 'NONE', 'NONE',  #47 ) ;
#306 = DIRECTION ( 'NONE',  ( 0.000000000000000000, 0.000000000000000000, 1.000000000000000000 ) ) ;
#307 = ORIENTED_EDGE ( 'NONE', *, *, #55, .T. ) ;
ENDSEC;
END-ISO-10303-21;
