ISO-10303-21;
HEADER;
FILE_DESCRIPTION (( 'STEP AP203' ),
    '1' );
FILE_NAME ('8c6b.STEP',
    '2022-07-07T09:59:25',
    ( '' ),
    ( '' ),
    'SwSTEP 2.0',
    'SolidWorks 2019',
    '' );
FILE_SCHEMA (( 'CONFIG_CONTROL_DESIGN' ));
ENDSEC;

DATA;
#1 = ORGANIZATION ( 'NEURÈENÝ', 'NEURÈENÝ', '' ) ;
#2 = LOCAL_TIME ( 11, 59, 25.00000000000000000, #105 ) ;
#3 = DIRECTION ( 'NONE',  ( -0.000000000000000000, -0.000000000000000000, -1.000000000000000000 ) ) ;
#4 = FACE_BOUND ( 'NONE', #122, .T. ) ;
#5 = ORIENTED_EDGE ( 'NONE', *, *, #183, .T. ) ;
#6 = ADVANCED_FACE ( 'NONE', ( #170 ), #189, .T. ) ;
#7 = CARTESIAN_POINT ( 'NONE',  ( -4.250000000000000000, 0.000000000000000000, 105.0000000000000142 ) ) ;
#8 = CARTESIAN_POINT ( 'NONE',  ( 0.000000000000000000, 0.000000000000000000, 5.199999999999996625 ) ) ;
#9 = DATE_AND_TIME ( #224, #39 ) ;
#10 = CARTESIAN_POINT ( 'NONE',  ( 0.000000000000000000, 0.000000000000000000, 105.0000000000000142 ) ) ;
#11 =( NAMED_UNIT ( * ) PLANE_ANGLE_UNIT ( ) SI_UNIT ( $, .RADIAN. ) );
#12 = CLOSED_SHELL ( 'NONE', ( #94, #65, #246, #160, #28, #107, #56, #6, #272 ) ) ;
#13 = LINE ( 'NONE', #7, #146 ) ;
#14 = DATE_AND_TIME ( #251, #32 ) ;
#15 = DIRECTION ( 'NONE',  ( 0.000000000000000000, 0.000000000000000000, 1.000000000000000000 ) ) ;
#16 = DATE_AND_TIME ( #157, #166 ) ;
#17 = DIRECTION ( 'NONE',  ( 0.000000000000000000, 0.000000000000000000, 1.000000000000000000 ) ) ;
#18 = PERSON_AND_ORGANIZATION ( #115, #1 ) ;
#19 = AXIS2_PLACEMENT_3D ( 'NONE', #192, #286, #287 ) ;
#20 = CIRCLE ( 'NONE', #57, 4.250000000000000000 ) ;
#21 = LOCAL_TIME ( 11, 59, 25.00000000000000000, #302 ) ;
#22 = ORIENTED_EDGE ( 'NONE', *, *, #194, .F. ) ;
#23 = CIRCLE ( 'NONE', #195, 0.1999999999999996503 ) ;
#24 = ORIENTED_EDGE ( 'NONE', *, *, #306, .F. ) ;
#25 = PRODUCT_RELATED_PRODUCT_CATEGORY ( 'detail', '', ( #67 ) ) ;
#26 = EDGE_LOOP ( 'NONE', ( #47, #262, #185, #220 ) ) ;
#27 = ORIENTED_EDGE ( 'NONE', *, *, #44, .T. ) ;
#28 = ADVANCED_FACE ( 'NONE', ( #4, #96 ), #168, .T. ) ;
#29 = CYLINDRICAL_SURFACE ( 'NONE', #19, 4.250000000000000000 ) ;
#30 = FACE_OUTER_BOUND ( 'NONE', #69, .T. ) ;
#31 = DIRECTION ( 'NONE',  ( -0.000000000000000000, -0.000000000000000000, -1.000000000000000000 ) ) ;
#32 = LOCAL_TIME ( 11, 59, 25.00000000000000000, #298 ) ;
#33 = COORDINATED_UNIVERSAL_TIME_OFFSET ( 1, 0, .AHEAD. ) ;
#34 = PRODUCT_DEFINITION ( 'NEZNÁMÝ', '', #211, #54 ) ;
#35 = CARTESIAN_POINT ( 'NONE',  ( 0.000000000000000000, 0.000000000000000000, 5.000000000000000000 ) ) ;
#36 = PERSON_AND_ORGANIZATION_ROLE ( 'creator' ) ;
#37 = DIRECTION ( 'NONE',  ( 1.000000000000000000, 0.000000000000000000, 0.000000000000000000 ) ) ;
#38 = MECHANICAL_CONTEXT ( 'NONE', #200, 'mechanical' ) ;
#39 = LOCAL_TIME ( 11, 59, 25.00000000000000000, #33 ) ;
#40 = DIRECTION ( 'NONE',  ( 0.000000000000000000, 0.000000000000000000, 1.000000000000000000 ) ) ;
#41 = DIRECTION ( 'NONE',  ( 1.000000000000000000, 0.000000000000000000, 0.000000000000000000 ) ) ;
#42 = VERTEX_POINT ( 'NONE', #51 ) ;
#43 = VERTEX_POINT ( 'NONE', #241 ) ;
#44 = EDGE_CURVE ( 'NONE', #77, #209, #214, .T. ) ;
#45 = APPROVAL ( #228, 'NEURÈENÝ' ) ;
#46 = CC_DESIGN_PERSON_AND_ORGANIZATION_ASSIGNMENT ( #277, #161, ( #67 ) ) ;
#47 = ORIENTED_EDGE ( 'NONE', *, *, #257, .F. ) ;
#48 = AXIS2_PLACEMENT_3D ( 'NONE', #290, #129, #174 ) ;
#49 = DIRECTION ( 'NONE',  ( 1.000000000000000000, 0.000000000000000000, 0.000000000000000000 ) ) ;
#50 = ORIENTED_EDGE ( 'NONE', *, *, #201, .F. ) ;
#51 = CARTESIAN_POINT ( 'NONE',  ( 4.250000000000000000, 5.204748896376250699E-16, 105.0000000000000142 ) ) ;
#52 = CARTESIAN_POINT ( 'NONE',  ( 0.000000000000000000, 0.000000000000000000, 5.199999999999996625 ) ) ;
#53 = CARTESIAN_POINT ( 'NONE',  ( 0.000000000000000000, 0.000000000000000000, 5.000000000000000000 ) ) ;
#54 = DESIGN_CONTEXT ( 'detailed design', #109, 'design' ) ;
#55 = CIRCLE ( 'NONE', #164, 4.250000000000000000 ) ;
#56 = ADVANCED_FACE ( 'NONE', ( #148 ), #29, .T. ) ;
#57 = AXIS2_PLACEMENT_3D ( 'NONE', #10, #15, #83 ) ;
#58 = DIRECTION ( 'NONE',  ( 1.000000000000000000, 0.000000000000000000, -0.000000000000000000 ) ) ;
#59 = DIRECTION ( 'NONE',  ( 1.000000000000000000, 0.000000000000000000, 0.000000000000000000 ) ) ;
#60 = CARTESIAN_POINT ( 'NONE',  ( 4.450000000000000178, 0.000000000000000000, 5.199999999999996625 ) ) ;
#61 = APPROVAL_STATUS ( 'not_yet_approved' ) ;
#62 = CARTESIAN_POINT ( 'NONE',  ( 0.000000000000000000, 0.000000000000000000, 105.0000000000000142 ) ) ;
#63 = APPROVAL_ROLE ( '' ) ;
#64 = AXIS2_PLACEMENT_3D ( 'NONE', #273, #78, #58 ) ;
#65 = ADVANCED_FACE ( 'NONE', ( #145 ), #76, .T. ) ;
#66 = DIRECTION ( 'NONE',  ( 1.000000000000000000, 0.000000000000000000, 0.000000000000000000 ) ) ;
#67 = PRODUCT ( '8c6b', '8c6b', '', ( #38 ) ) ;
#68 = CC_DESIGN_APPROVAL ( #45, ( #190 ) ) ;
#69 = EDGE_LOOP ( 'NONE', ( #24, #98, #212, #266 ) ) ;
#70 = CIRCLE ( 'NONE', #141, 4.250000000000000000 ) ;
#71 = EDGE_CURVE ( 'NONE', #43, #188, #55, .T. ) ;
#72 = EDGE_LOOP ( 'NONE', ( #279, #22, #5, #163 ) ) ;
#73 = DIRECTION ( 'NONE',  ( 0.000000000000000000, 0.000000000000000000, 1.000000000000000000 ) ) ;
#74 = CARTESIAN_POINT ( 'NONE',  ( 0.000000000000000000, 0.000000000000000000, 105.0000000000000142 ) ) ;
#75 = AXIS2_PLACEMENT_3D ( 'NONE', #265, #142, #118 ) ;
#76 = CYLINDRICAL_SURFACE ( 'NONE', #75, 4.250000000000000000 ) ;
#77 = VERTEX_POINT ( 'NONE', #147 ) ;
#78 = DIRECTION ( 'NONE',  ( 0.000000000000000000, 0.000000000000000000, 1.000000000000000000 ) ) ;
#79 = CYLINDRICAL_SURFACE ( 'NONE', #248, 7.000000000000000000 ) ;
#80 = FACE_OUTER_BOUND ( 'NONE', #26, .T. ) ;
#81 =( NAMED_UNIT ( * ) SI_UNIT ( $, .STERADIAN. ) SOLID_ANGLE_UNIT ( ) );
#82 = CARTESIAN_POINT ( 'NONE',  ( 0.000000000000000000, 0.000000000000000000, 0.000000000000000000 ) ) ;
#83 = DIRECTION ( 'NONE',  ( 1.000000000000000000, 0.000000000000000000, 0.000000000000000000 ) ) ;
#84 =( LENGTH_UNIT ( ) NAMED_UNIT ( * ) SI_UNIT ( .MILLI., .METRE. ) );
#85 = AXIS2_PLACEMENT_3D ( 'NONE', #53, #167, #165 ) ;
#86 = AXIS2_PLACEMENT_3D ( 'NONE', #297, #106, #179 ) ;
#87 = SECURITY_CLASSIFICATION_LEVEL ( 'unclassified' ) ;
#88 = EDGE_CURVE ( 'NONE', #288, #217, #221, .T. ) ;
#89 = ORIENTED_EDGE ( 'NONE', *, *, #128, .T. ) ;
#90 = CC_DESIGN_PERSON_AND_ORGANIZATION_ASSIGNMENT ( #153, #208, ( #34 ) ) ;
#91 = ORIENTED_EDGE ( 'NONE', *, *, #257, .T. ) ;
#92 = EDGE_LOOP ( 'NONE', ( #114, #144, #281, #301 ) ) ;
#93 = EDGE_LOOP ( 'NONE', ( #140, #89, #120, #123 ) ) ;
#94 = ADVANCED_FACE ( 'NONE', ( #240 ), #169, .F. ) ;
#95 = ORIENTED_EDGE ( 'NONE', *, *, #194, .T. ) ;
#96 = FACE_OUTER_BOUND ( 'NONE', #172, .T. ) ;
#97 = CIRCLE ( 'NONE', #275, 4.250000000000000000 ) ;
#98 = ORIENTED_EDGE ( 'NONE', *, *, #143, .T. ) ;
#99 = EDGE_CURVE ( 'NONE', #188, #209, #23, .T. ) ;
#100 = AXIS2_PLACEMENT_3D ( 'NONE', #203, #267, #289 ) ;
#101 = DIRECTION ( 'NONE',  ( -0.000000000000000000, -0.000000000000000000, -1.000000000000000000 ) ) ;
#102 = CARTESIAN_POINT ( 'NONE',  ( 7.000000000000000000, 8.572527594031473190E-16, 0.000000000000000000 ) ) ;
#103 = APPLICATION_PROTOCOL_DEFINITION ( 'international standard', 'config_control_design', 1994, #200 ) ;
#104 = CARTESIAN_POINT ( 'NONE',  ( 4.450000000000000178, 0.000000000000000000, 4.999999999999998224 ) ) ;
#105 = COORDINATED_UNIVERSAL_TIME_OFFSET ( 1, 0, .AHEAD. ) ;
#106 = DIRECTION ( 'NONE',  ( -0.000000000000000000, -0.000000000000000000, -1.000000000000000000 ) ) ;
#107 = ADVANCED_FACE ( 'NONE', ( #271 ), #292, .F. ) ;
#108 = DIRECTION ( 'NONE',  ( -0.000000000000000000, -0.000000000000000000, -1.000000000000000000 ) ) ;
#109 = APPLICATION_CONTEXT ( 'configuration controlled 3d designs of mechanical parts and assemblies' ) ;
#110 = APPROVAL_DATE_TIME ( #16, #300 ) ;
#111 = EDGE_LOOP ( 'NONE', ( #244, #91, #50, #263 ) ) ;
#112 = APPROVAL_DATE_TIME ( #296, #136 ) ;
#113 = CIRCLE ( 'NONE', #100, 0.1999999999999996503 ) ;
#114 = ORIENTED_EDGE ( 'NONE', *, *, #143, .F. ) ;
#115 = PERSON ( 'NEURÈENÝ', 'NEURÈENÝ', 'NEURÈENÝ', ('NEURÈENÝ'), ('NEURÈENÝ'), ('NEURÈENÝ') ) ;
#116 = AXIS2_PLACEMENT_3D ( 'NONE', #155, #40, #207 ) ;
#117 = AXIS2_PLACEMENT_3D ( 'NONE', #8, #126, #41 ) ;
#118 = DIRECTION ( 'NONE',  ( -1.000000000000000000, 0.000000000000000000, 0.000000000000000000 ) ) ;
#119 = ORIENTED_EDGE ( 'NONE', *, *, #306, .T. ) ;
#120 = ORIENTED_EDGE ( 'NONE', *, *, #219, .T. ) ;
#121 =( GEOMETRIC_REPRESENTATION_CONTEXT ( 3 ) GLOBAL_UNCERTAINTY_ASSIGNED_CONTEXT ( ( #175 ) ) GLOBAL_UNIT_ASSIGNED_CONTEXT ( ( #84, #11, #81 ) ) REPRESENTATION_CONTEXT ( 'NONE', 'WORKASPACE' ) );
#122 = EDGE_LOOP ( 'NONE', ( #285, #27 ) ) ;
#123 = ORIENTED_EDGE ( 'NONE', *, *, #183, .F. ) ;
#124 = CARTESIAN_POINT ( 'NONE',  ( 4.250000000000000000, 5.204748896376250699E-16, 5.199999999999996625 ) ) ;
#125 = CARTESIAN_POINT ( 'NONE',  ( 0.000000000000000000, 0.000000000000000000, 5.199999999999996625 ) ) ;
#126 = DIRECTION ( 'NONE',  ( 0.000000000000000000, 0.000000000000000000, 1.000000000000000000 ) ) ;
#127 = PERSON_AND_ORGANIZATION ( #115, #1 ) ;
#128 = EDGE_CURVE ( 'NONE', #42, #188, #202, .T. ) ;
#129 = DIRECTION ( 'NONE',  ( 0.000000000000000000, 0.000000000000000000, 1.000000000000000000 ) ) ;
#130 = AXIS2_PLACEMENT_3D ( 'NONE', #193, #3, #196 ) ;
#131 = PERSON_AND_ORGANIZATION ( #115, #1 ) ;
#132 = CIRCLE ( 'NONE', #256, 7.000000000000000000 ) ;
#133 = DIRECTION ( 'NONE',  ( -1.000000000000000000, 0.000000000000000000, 0.000000000000000000 ) ) ;
#134 = CARTESIAN_POINT ( 'NONE',  ( -7.000000000000000000, 0.000000000000000000, 5.000000000000000000 ) ) ;
#135 = COORDINATED_UNIVERSAL_TIME_OFFSET ( 1, 0, .AHEAD. ) ;
#136 = APPROVAL ( #61, 'NEURÈENÝ' ) ;
#137 = MANIFOLD_SOLID_BREP ( 'Zaoblit1', #12 ) ;
#138 = EDGE_CURVE ( 'NONE', #42, #235, #97, .T. ) ;
#139 = APPROVAL_DATE_TIME ( #9, #45 ) ;
#140 = ORIENTED_EDGE ( 'NONE', *, *, #138, .F. ) ;
#141 = AXIS2_PLACEMENT_3D ( 'NONE', #125, #152, #206 ) ;
#142 = DIRECTION ( 'NONE',  ( -0.000000000000000000, -0.000000000000000000, -1.000000000000000000 ) ) ;
#143 = EDGE_CURVE ( 'NONE', #242, #282, #225, .T. ) ;
#144 = ORIENTED_EDGE ( 'NONE', *, *, #154, .F. ) ;
#145 = FACE_OUTER_BOUND ( 'NONE', #93, .T. ) ;
#146 = VECTOR ( 'NONE', #149, 1000.000000000000000 ) ;
#147 = CARTESIAN_POINT ( 'NONE',  ( -4.450000000000000178, 5.449678256205721784E-16, 4.999999999999998224 ) ) ;
#148 = FACE_OUTER_BOUND ( 'NONE', #72, .T. ) ;
#149 = DIRECTION ( 'NONE',  ( -0.000000000000000000, -0.000000000000000000, -1.000000000000000000 ) ) ;
#150 = PERSON_AND_ORGANIZATION ( #115, #1 ) ;
#151 = APPROVAL_PERSON_ORGANIZATION ( #18, #136, #231 ) ;
#152 = DIRECTION ( 'NONE',  ( 0.000000000000000000, 0.000000000000000000, 1.000000000000000000 ) ) ;
#153 = PERSON_AND_ORGANIZATION ( #115, #1 ) ;
#154 = EDGE_CURVE ( 'NONE', #288, #242, #205, .T. ) ;
#155 = CARTESIAN_POINT ( 'NONE',  ( 0.000000000000000000, 0.000000000000000000, 5.199999999999996625 ) ) ;
#156 = CARTESIAN_POINT ( 'NONE',  ( 7.000000000000000000, 8.572527594031473190E-16, 5.000000000000000000 ) ) ;
#157 = CALENDAR_DATE ( 2022, 7, 7 ) ;
#158 = CIRCLE ( 'NONE', #284, 7.000000000000000000 ) ;
#159 = DIRECTION ( 'NONE',  ( 1.000000000000000000, 0.000000000000000000, 0.000000000000000000 ) ) ;
#160 = ADVANCED_FACE ( 'NONE', ( #227 ), #79, .T. ) ;
#161 = PERSON_AND_ORGANIZATION_ROLE ( 'design_owner' ) ;
#162 = CC_DESIGN_DATE_AND_TIME_ASSIGNMENT ( #280, #204, ( #190 ) ) ;
#163 = ORIENTED_EDGE ( 'NONE', *, *, #71, .T. ) ;
#164 = AXIS2_PLACEMENT_3D ( 'NONE', #52, #261, #49 ) ;
#165 = DIRECTION ( 'NONE',  ( 1.000000000000000000, 0.000000000000000000, -0.000000000000000000 ) ) ;
#166 = LOCAL_TIME ( 11, 59, 25.00000000000000000, #135 ) ;
#167 = DIRECTION ( 'NONE',  ( 0.000000000000000000, 0.000000000000000000, 1.000000000000000000 ) ) ;
#168 = PLANE ( 'NONE',  #85 ) ;
#169 = TOROIDAL_SURFACE ( 'NONE', #116, 4.450000000000000178, 0.2000000000000000111 ) ;
#170 = FACE_OUTER_BOUND ( 'NONE', #238, .T. ) ;
#171 = TOROIDAL_SURFACE ( 'NONE', #117, 4.450000000000000178, 0.2000000000000000111 ) ;
#172 = EDGE_LOOP ( 'NONE', ( #260, #119 ) ) ;
#173 = CC_DESIGN_PERSON_AND_ORGANIZATION_ASSIGNMENT ( #177, #36, ( #211 ) ) ;
#174 = DIRECTION ( 'NONE',  ( 1.000000000000000000, 0.000000000000000000, 0.000000000000000000 ) ) ;
#175 = UNCERTAINTY_MEASURE_WITH_UNIT (LENGTH_MEASURE( 1.000000000000000082E-05 ), #84, 'distance_accuracy_value', 'NONE');
#176 = DIRECTION ( 'NONE',  ( 0.000000000000000000, -1.000000000000000000, 0.000000000000000000 ) ) ;
#177 = PERSON_AND_ORGANIZATION ( #115, #1 ) ;
#178 = CARTESIAN_POINT ( 'NONE',  ( 4.250000000000000000, 5.204748896376250699E-16, 105.0000000000000142 ) ) ;
#179 = DIRECTION ( 'NONE',  ( 1.000000000000000000, 0.000000000000000000, 0.000000000000000000 ) ) ;
#180 = DATE_TIME_ROLE ( 'creation_date' ) ;
#181 = CARTESIAN_POINT ( 'NONE',  ( -7.000000000000000000, 0.000000000000000000, 0.000000000000000000 ) ) ;
#182 = PERSON_AND_ORGANIZATION ( #115, #1 ) ;
#183 = EDGE_CURVE ( 'NONE', #235, #43, #13, .T. ) ;
#184 = PRODUCT_DEFINITION_SHAPE ( 'NONE', 'NONE',  #34 ) ;
#185 = ORIENTED_EDGE ( 'NONE', *, *, #99, .T. ) ;
#186 = PERSON_AND_ORGANIZATION_ROLE ( 'classification_officer' ) ;
#187 = EDGE_LOOP ( 'NONE', ( #307, #233 ) ) ;
#188 = VERTEX_POINT ( 'NONE', #124 ) ;
#189 = PLANE ( 'NONE',  #299 ) ;
#190 = SECURITY_CLASSIFICATION ( '', '', #87 ) ;
#191 = CC_DESIGN_APPROVAL ( #136, ( #211 ) ) ;
#192 = CARTESIAN_POINT ( 'NONE',  ( 0.000000000000000000, 0.000000000000000000, 105.0000000000000142 ) ) ;
#193 = CARTESIAN_POINT ( 'NONE',  ( 0.000000000000000000, 0.000000000000000000, 5.000000000000000000 ) ) ;
#194 = EDGE_CURVE ( 'NONE', #235, #42, #20, .T. ) ;
#195 = AXIS2_PLACEMENT_3D ( 'NONE', #60, #176, #252 ) ;
#196 = DIRECTION ( 'NONE',  ( 1.000000000000000000, 0.000000000000000000, 0.000000000000000000 ) ) ;
#197 = APPROVAL_PERSON_ORGANIZATION ( #182, #300, #63 ) ;
#198 = APPROVAL_PERSON_ORGANIZATION ( #150, #45, #249 ) ;
#199 = DIRECTION ( 'NONE',  ( -1.000000000000000000, 0.000000000000000000, 0.000000000000000000 ) ) ;
#200 = APPLICATION_CONTEXT ( 'configuration controlled 3d designs of mechanical parts and assemblies' ) ;
#201 = EDGE_CURVE ( 'NONE', #209, #77, #293, .T. ) ;
#202 = LINE ( 'NONE', #178, #236 ) ;
#203 = CARTESIAN_POINT ( 'NONE',  ( -4.450000000000000178, 5.449678256205721784E-16, 5.199999999999996625 ) ) ;
#204 = DATE_TIME_ROLE ( 'classification_date' ) ;
#205 = CIRCLE ( 'NONE', #48, 7.000000000000000000 ) ;
#206 = DIRECTION ( 'NONE',  ( 1.000000000000000000, 0.000000000000000000, 0.000000000000000000 ) ) ;
#207 = DIRECTION ( 'NONE',  ( 1.000000000000000000, 0.000000000000000000, 0.000000000000000000 ) ) ;
#208 = PERSON_AND_ORGANIZATION_ROLE ( 'creator' ) ;
#209 = VERTEX_POINT ( 'NONE', #104 ) ;
#210 = APPROVAL_STATUS ( 'not_yet_approved' ) ;
#211 = PRODUCT_DEFINITION_FORMATION_WITH_SPECIFIED_SOURCE ( 'LIBOVOLNÝ', '', #67, .NOT_KNOWN. ) ;
#212 = ORIENTED_EDGE ( 'NONE', *, *, #239, .T. ) ;
#213 = CC_DESIGN_PERSON_AND_ORGANIZATION_ASSIGNMENT ( #127, #274, ( #211 ) ) ;
#214 = CIRCLE ( 'NONE', #130, 4.450000000000000178 ) ;
#215 = CARTESIAN_POINT ( 'NONE',  ( -7.000000000000000000, 0.000000000000000000, 5.000000000000000000 ) ) ;
#216 = DIRECTION ( 'NONE',  ( 1.000000000000000000, 0.000000000000000000, -0.000000000000000000 ) ) ;
#217 = VERTEX_POINT ( 'NONE', #181 ) ;
#218 = CIRCLE ( 'NONE', #304, 7.000000000000000000 ) ;
#219 = EDGE_CURVE ( 'NONE', #188, #43, #70, .T. ) ;
#220 = ORIENTED_EDGE ( 'NONE', *, *, #44, .F. ) ;
#221 = LINE ( 'NONE', #215, #253 ) ;
#222 = CYLINDRICAL_SURFACE ( 'NONE', #258, 7.000000000000000000 ) ;
#223 = CARTESIAN_POINT ( 'NONE',  ( 7.000000000000000000, 8.572527594031473190E-16, 5.000000000000000000 ) ) ;
#224 = CALENDAR_DATE ( 2022, 7, 7 ) ;
#225 = LINE ( 'NONE', #156, #278 ) ;
#226 = APPLICATION_PROTOCOL_DEFINITION ( 'international standard', 'config_control_design', 1994, #109 ) ;
#227 = FACE_OUTER_BOUND ( 'NONE', #92, .T. ) ;
#228 = APPROVAL_STATUS ( 'not_yet_approved' ) ;
#229 = DIRECTION ( 'NONE',  ( -0.000000000000000000, -0.000000000000000000, -1.000000000000000000 ) ) ;
#230 = CARTESIAN_POINT ( 'NONE',  ( 0.000000000000000000, 0.000000000000000000, 5.000000000000000000 ) ) ;
#231 = APPROVAL_ROLE ( '' ) ;
#232 = EDGE_CURVE ( 'NONE', #217, #282, #132, .T. ) ;
#233 = ORIENTED_EDGE ( 'NONE', *, *, #239, .F. ) ;
#234 = CC_DESIGN_PERSON_AND_ORGANIZATION_ASSIGNMENT ( #131, #186, ( #190 ) ) ;
#235 = VERTEX_POINT ( 'NONE', #295 ) ;
#236 = VECTOR ( 'NONE', #31, 1000.000000000000000 ) ;
#237 = CC_DESIGN_SECURITY_CLASSIFICATION ( #190, ( #211 ) ) ;
#238 = EDGE_LOOP ( 'NONE', ( #95, #283 ) ) ;
#239 = EDGE_CURVE ( 'NONE', #282, #217, #218, .T. ) ;
#240 = FACE_OUTER_BOUND ( 'NONE', #111, .T. ) ;
#241 = CARTESIAN_POINT ( 'NONE',  ( -4.250000000000000000, 0.000000000000000000, 5.199999999999996625 ) ) ;
#242 = VERTEX_POINT ( 'NONE', #223 ) ;
#243 = ADVANCED_BREP_SHAPE_REPRESENTATION ( '8c6b', ( #137, #303 ), #121 ) ;
#244 = ORIENTED_EDGE ( 'NONE', *, *, #71, .F. ) ;
#245 = CARTESIAN_POINT ( 'NONE',  ( 0.000000000000000000, 0.000000000000000000, 5.000000000000000000 ) ) ;
#246 = ADVANCED_FACE ( 'NONE', ( #30 ), #222, .T. ) ;
#247 = DIRECTION ( 'NONE',  ( 0.000000000000000000, 0.000000000000000000, 1.000000000000000000 ) ) ;
#248 = AXIS2_PLACEMENT_3D ( 'NONE', #245, #229, #133 ) ;
#249 = APPROVAL_ROLE ( '' ) ;
#250 = DIRECTION ( 'NONE',  ( 0.000000000000000000, 0.000000000000000000, 1.000000000000000000 ) ) ;
#251 = CALENDAR_DATE ( 2022, 7, 7 ) ;
#252 = DIRECTION ( 'NONE',  ( 0.000000000000000000, 0.000000000000000000, -1.000000000000000000 ) ) ;
#253 = VECTOR ( 'NONE', #305, 1000.000000000000000 ) ;
#254 = CARTESIAN_POINT ( 'NONE',  ( 0.000000000000000000, 0.000000000000000000, 0.000000000000000000 ) ) ;
#255 = DIRECTION ( 'NONE',  ( 0.000000000000000000, 0.000000000000000000, 1.000000000000000000 ) ) ;
#256 = AXIS2_PLACEMENT_3D ( 'NONE', #254, #250, #276 ) ;
#257 = EDGE_CURVE ( 'NONE', #43, #77, #113, .T. ) ;
#258 = AXIS2_PLACEMENT_3D ( 'NONE', #35, #101, #199 ) ;
#259 = SHAPE_DEFINITION_REPRESENTATION ( #184, #243 ) ;
#260 = ORIENTED_EDGE ( 'NONE', *, *, #154, .T. ) ;
#261 = DIRECTION ( 'NONE',  ( 0.000000000000000000, 0.000000000000000000, 1.000000000000000000 ) ) ;
#262 = ORIENTED_EDGE ( 'NONE', *, *, #219, .F. ) ;
#263 = ORIENTED_EDGE ( 'NONE', *, *, #99, .F. ) ;
#264 = CC_DESIGN_DATE_AND_TIME_ASSIGNMENT ( #14, #180, ( #34 ) ) ;
#265 = CARTESIAN_POINT ( 'NONE',  ( 0.000000000000000000, 0.000000000000000000, 105.0000000000000142 ) ) ;
#266 = ORIENTED_EDGE ( 'NONE', *, *, #88, .F. ) ;
#267 = DIRECTION ( 'NONE',  ( 1.224646799147353207E-16, 1.000000000000000000, -0.000000000000000000 ) ) ;
#268 = DIRECTION ( 'NONE',  ( 0.000000000000000000, 0.000000000000000000, 1.000000000000000000 ) ) ;
#269 = CC_DESIGN_APPROVAL ( #300, ( #34 ) ) ;
#270 = CALENDAR_DATE ( 2022, 7, 7 ) ;
#271 = FACE_OUTER_BOUND ( 'NONE', #187, .T. ) ;
#272 = ADVANCED_FACE ( 'NONE', ( #80 ), #171, .F. ) ;
#273 = CARTESIAN_POINT ( 'NONE',  ( 0.000000000000000000, 0.000000000000000000, 0.000000000000000000 ) ) ;
#274 = PERSON_AND_ORGANIZATION_ROLE ( 'design_supplier' ) ;
#275 = AXIS2_PLACEMENT_3D ( 'NONE', #62, #268, #37 ) ;
#276 = DIRECTION ( 'NONE',  ( 1.000000000000000000, 0.000000000000000000, 0.000000000000000000 ) ) ;
#277 = PERSON_AND_ORGANIZATION ( #115, #1 ) ;
#278 = VECTOR ( 'NONE', #108, 1000.000000000000000 ) ;
#279 = ORIENTED_EDGE ( 'NONE', *, *, #128, .F. ) ;
#280 = DATE_AND_TIME ( #270, #2 ) ;
#281 = ORIENTED_EDGE ( 'NONE', *, *, #88, .T. ) ;
#282 = VERTEX_POINT ( 'NONE', #102 ) ;
#283 = ORIENTED_EDGE ( 'NONE', *, *, #138, .T. ) ;
#284 = AXIS2_PLACEMENT_3D ( 'NONE', #230, #17, #159 ) ;
#285 = ORIENTED_EDGE ( 'NONE', *, *, #201, .T. ) ;
#286 = DIRECTION ( 'NONE',  ( -0.000000000000000000, -0.000000000000000000, -1.000000000000000000 ) ) ;
#287 = DIRECTION ( 'NONE',  ( -1.000000000000000000, 0.000000000000000000, 0.000000000000000000 ) ) ;
#288 = VERTEX_POINT ( 'NONE', #134 ) ;
#289 = DIRECTION ( 'NONE',  ( -1.000000000000000000, 1.224646799147353454E-16, 0.000000000000000000 ) ) ;
#290 = CARTESIAN_POINT ( 'NONE',  ( 0.000000000000000000, 0.000000000000000000, 5.000000000000000000 ) ) ;
#291 = CARTESIAN_POINT ( 'NONE',  ( 0.000000000000000000, 0.000000000000000000, 0.000000000000000000 ) ) ;
#292 = PLANE ( 'NONE',  #64 ) ;
#293 = CIRCLE ( 'NONE', #86, 4.450000000000000178 ) ;
#294 = CALENDAR_DATE ( 2022, 7, 7 ) ;
#295 = CARTESIAN_POINT ( 'NONE',  ( -4.250000000000000000, 0.000000000000000000, 105.0000000000000142 ) ) ;
#296 = DATE_AND_TIME ( #294, #21 ) ;
#297 = CARTESIAN_POINT ( 'NONE',  ( 0.000000000000000000, 0.000000000000000000, 5.000000000000000000 ) ) ;
#298 = COORDINATED_UNIVERSAL_TIME_OFFSET ( 1, 0, .AHEAD. ) ;
#299 = AXIS2_PLACEMENT_3D ( 'NONE', #74, #73, #216 ) ;
#300 = APPROVAL ( #210, 'NEURÈENÝ' ) ;
#301 = ORIENTED_EDGE ( 'NONE', *, *, #232, .T. ) ;
#302 = COORDINATED_UNIVERSAL_TIME_OFFSET ( 1, 0, .AHEAD. ) ;
#303 = AXIS2_PLACEMENT_3D ( 'NONE', #291, #255, #59 ) ;
#304 = AXIS2_PLACEMENT_3D ( 'NONE', #82, #247, #66 ) ;
#305 = DIRECTION ( 'NONE',  ( -0.000000000000000000, -0.000000000000000000, -1.000000000000000000 ) ) ;
#306 = EDGE_CURVE ( 'NONE', #242, #288, #158, .T. ) ;
#307 = ORIENTED_EDGE ( 'NONE', *, *, #232, .F. ) ;
ENDSEC;
END-ISO-10303-21;
