ISO-10303-21;
HEADER;
FILE_DESCRIPTION (( 'STEP AP203' ),
    '1' );
FILE_NAME ('1da8.STEP',
    '2022-07-07T10:41:31',
    ( '' ),
    ( '' ),
    'SwSTEP 2.0',
    'SolidWorks 2019',
    '' );
FILE_SCHEMA (( 'CONFIG_CONTROL_DESIGN' ));
ENDSEC;

DATA;
#1 = EDGE_CURVE ( 'NONE', #125, #141, #157, .T. ) ;
#2 = DIRECTION ( 'NONE',  ( 1.000000000000000000, 0.000000000000000000, 0.000000000000000000 ) ) ;
#3 = EDGE_CURVE ( 'NONE', #113, #67, #15, .T. ) ;
#4 = LINE ( 'NONE', #163, #225 ) ;
#5 = VERTEX_POINT ( 'NONE', #34 ) ;
#6 = ORIENTED_EDGE ( 'NONE', *, *, #122, .F. ) ;
#7 = CARTESIAN_POINT ( 'NONE',  ( -0.6999999999999999556, 8.572527594031471957E-17, 1.400000000000012346 ) ) ;
#8 = CIRCLE ( 'NONE', #290, 0.5000000000000000000 ) ;
#9 = CC_DESIGN_PERSON_AND_ORGANIZATION_ASSIGNMENT ( #184, #263, ( #181 ) ) ;
#10 = LOCAL_TIME ( 12, 41, 31.00000000000000000, #132 ) ;
#11 = ORIENTED_EDGE ( 'NONE', *, *, #178, .T. ) ;
#12 = ADVANCED_FACE ( 'NONE', ( #303 ), #50, .T. ) ;
#13 = AXIS2_PLACEMENT_3D ( 'NONE', #98, #79, #151 ) ;
#14 = CARTESIAN_POINT ( 'NONE',  ( 0.000000000000000000, 0.000000000000000000, 1.400000000000012346 ) ) ;
#15 = CIRCLE ( 'NONE', #227, 0.1999999999999999833 ) ;
#16 = DATE_AND_TIME ( #62, #10 ) ;
#17 = DATE_TIME_ROLE ( 'classification_date' ) ;
#18 = CARTESIAN_POINT ( 'NONE',  ( -0.5000000000000000000, 0.000000000000000000, 161.2000000000000171 ) ) ;
#19 = VERTEX_POINT ( 'NONE', #52 ) ;
#20 = APPROVAL_STATUS ( 'not_yet_approved' ) ;
#21 = LINE ( 'NONE', #215, #81 ) ;
#22 = ORIENTED_EDGE ( 'NONE', *, *, #250, .T. ) ;
#23 = ADVANCED_FACE ( 'NONE', ( #147 ), #31, .T. ) ;
#24 = PRODUCT_RELATED_PRODUCT_CATEGORY ( 'detail', '', ( #173 ) ) ;
#25 = PERSON_AND_ORGANIZATION ( #200, #230 ) ;
#26 = ADVANCED_FACE ( 'NONE', ( #92 ), #298, .T. ) ;
#27 = DIRECTION ( 'NONE',  ( -0.000000000000000000, -0.000000000000000000, -1.000000000000000000 ) ) ;
#28 = FACE_OUTER_BOUND ( 'NONE', #80, .T. ) ;
#29 = ORIENTED_EDGE ( 'NONE', *, *, #36, .F. ) ;
#30 = FACE_OUTER_BOUND ( 'NONE', #61, .T. ) ;
#31 = CYLINDRICAL_SURFACE ( 'NONE', #297, 0.5000000000000000000 ) ;
#32 = CC_DESIGN_APPROVAL ( #100, ( #294 ) ) ;
#33 = CARTESIAN_POINT ( 'NONE',  ( 0.000000000000000000, 0.000000000000000000, 0.000000000000000000 ) ) ;
#34 = CARTESIAN_POINT ( 'NONE',  ( 0.6999999999999999556, 0.000000000000000000, 1.200000000000006173 ) ) ;
#35 = CC_DESIGN_APPROVAL ( #175, ( #181 ) ) ;
#36 = EDGE_CURVE ( 'NONE', #113, #289, #68, .T. ) ;
#37 = AXIS2_PLACEMENT_3D ( 'NONE', #305, #27, #91 ) ;
#38 = LOCAL_TIME ( 12, 41, 31.00000000000000000, #114 ) ;
#39 = PERSON_AND_ORGANIZATION_ROLE ( 'creator' ) ;
#40 = DIRECTION ( 'NONE',  ( -0.000000000000000000, -0.000000000000000000, -1.000000000000000000 ) ) ;
#41 = AXIS2_PLACEMENT_3D ( 'NONE', #284, #186, #278 ) ;
#42 = COORDINATED_UNIVERSAL_TIME_OFFSET ( 1, 0, .AHEAD. ) ;
#43 = DIRECTION ( 'NONE',  ( 0.000000000000000000, 0.000000000000000000, 1.000000000000000000 ) ) ;
#44 = DIRECTION ( 'NONE',  ( 0.000000000000000000, 0.000000000000000000, -1.000000000000000000 ) ) ;
#45 = DIRECTION ( 'NONE',  ( 1.000000000000000000, 0.000000000000000000, 0.000000000000000000 ) ) ;
#46 = AXIS2_PLACEMENT_3D ( 'NONE', #195, #214, #77 ) ;
#47 = DATE_AND_TIME ( #162, #201 ) ;
#48 = FACE_OUTER_BOUND ( 'NONE', #228, .T. ) ;
#49 = CARTESIAN_POINT ( 'NONE',  ( 0.000000000000000000, 0.000000000000000000, 161.2000000000000171 ) ) ;
#50 = CYLINDRICAL_SURFACE ( 'NONE', #82, 1.250000000000000000 ) ;
#51 = DIRECTION ( 'NONE',  ( 0.000000000000000000, 0.000000000000000000, 1.000000000000000000 ) ) ;
#52 = CARTESIAN_POINT ( 'NONE',  ( -1.250000000000000000, 0.000000000000000000, 1.199999999999999956 ) ) ;
#53 = ORIENTED_EDGE ( 'NONE', *, *, #180, .T. ) ;
#54 = AXIS2_PLACEMENT_3D ( 'NONE', #210, #165, #44 ) ;
#55 = APPLICATION_PROTOCOL_DEFINITION ( 'international standard', 'config_control_design', 1994, #104 ) ;
#56 = CC_DESIGN_PERSON_AND_ORGANIZATION_ASSIGNMENT ( #25, #138, ( #173 ) ) ;
#57 = UNCERTAINTY_MEASURE_WITH_UNIT (LENGTH_MEASURE( 1.000000000000000082E-05 ), #247, 'distance_accuracy_value', 'NONE');
#58 =( GEOMETRIC_REPRESENTATION_CONTEXT ( 3 ) GLOBAL_UNCERTAINTY_ASSIGNED_CONTEXT ( ( #57 ) ) GLOBAL_UNIT_ASSIGNED_CONTEXT ( ( #247, #139, #170 ) ) REPRESENTATION_CONTEXT ( 'NONE', 'WORKASPACE' ) );
#59 = CC_DESIGN_PERSON_AND_ORGANIZATION_ASSIGNMENT ( #213, #131, ( #181 ) ) ;
#60 = TOROIDAL_SURFACE ( 'NONE', #46, 0.6999999999999999556, 0.2000000000000000111 ) ;
#61 = EDGE_LOOP ( 'NONE', ( #97, #189 ) ) ;
#62 = CALENDAR_DATE ( 2022, 7, 7 ) ;
#63 = DIRECTION ( 'NONE',  ( 1.000000000000000000, 0.000000000000000000, 0.000000000000000000 ) ) ;
#64 = PERSON_AND_ORGANIZATION ( #200, #230 ) ;
#65 = CC_DESIGN_PERSON_AND_ORGANIZATION_ASSIGNMENT ( #241, #39, ( #205 ) ) ;
#66 = CARTESIAN_POINT ( 'NONE',  ( 1.250000000000000000, 1.530808498934191571E-16, 1.199999999999999956 ) ) ;
#67 = VERTEX_POINT ( 'NONE', #300 ) ;
#68 = CIRCLE ( 'NONE', #203, 0.5000000000000000000 ) ;
#69 = DIRECTION ( 'NONE',  ( -1.000000000000000000, 0.000000000000000000, 0.000000000000000000 ) ) ;
#70 = CARTESIAN_POINT ( 'NONE',  ( 0.000000000000000000, 0.000000000000000000, 0.000000000000000000 ) ) ;
#71 = CARTESIAN_POINT ( 'NONE',  ( 0.000000000000000000, 0.000000000000000000, 1.199999999999999956 ) ) ;
#72 = DIRECTION ( 'NONE',  ( 0.000000000000000000, 0.000000000000000000, 1.000000000000000000 ) ) ;
#73 = EDGE_CURVE ( 'NONE', #289, #113, #8, .T. ) ;
#74 = ORIENTED_EDGE ( 'NONE', *, *, #250, .F. ) ;
#75 = DIRECTION ( 'NONE',  ( 1.000000000000000000, 0.000000000000000000, 0.000000000000000000 ) ) ;
#76 = ORIENTED_EDGE ( 'NONE', *, *, #73, .T. ) ;
#77 = DIRECTION ( 'NONE',  ( 1.000000000000000000, 0.000000000000000000, 0.000000000000000000 ) ) ;
#78 = ORIENTED_EDGE ( 'NONE', *, *, #90, .F. ) ;
#79 = DIRECTION ( 'NONE',  ( 0.000000000000000000, 0.000000000000000000, 1.000000000000000000 ) ) ;
#80 = EDGE_LOOP ( 'NONE', ( #144, #11, #76, #211 ) ) ;
#81 = VECTOR ( 'NONE', #183, 1000.000000000000000 ) ;
#82 = AXIS2_PLACEMENT_3D ( 'NONE', #95, #246, #196 ) ;
#83 = DIRECTION ( 'NONE',  ( 1.000000000000000000, 0.000000000000000000, 0.000000000000000000 ) ) ;
#84 = APPROVAL_DATE_TIME ( #47, #175 ) ;
#85 = CARTESIAN_POINT ( 'NONE',  ( 0.000000000000000000, 0.000000000000000000, 161.2000000000000171 ) ) ;
#86 = CIRCLE ( 'NONE', #37, 0.6999999999999999556 ) ;
#87 = CALENDAR_DATE ( 2022, 7, 7 ) ;
#88 = CARTESIAN_POINT ( 'NONE',  ( -0.5000000000000000000, 0.000000000000000000, 161.2000000000000171 ) ) ;
#89 = VERTEX_POINT ( 'NONE', #66 ) ;
#90 = EDGE_CURVE ( 'NONE', #171, #269, #179, .T. ) ;
#91 = DIRECTION ( 'NONE',  ( 1.000000000000000000, 0.000000000000000000, 0.000000000000000000 ) ) ;
#92 = FACE_OUTER_BOUND ( 'NONE', #169, .T. ) ;
#93 = ORIENTED_EDGE ( 'NONE', *, *, #222, .F. ) ;
#94 = DIRECTION ( 'NONE',  ( 1.000000000000000000, 0.000000000000000000, -0.000000000000000000 ) ) ;
#95 = CARTESIAN_POINT ( 'NONE',  ( 0.000000000000000000, 0.000000000000000000, 1.199999999999999956 ) ) ;
#96 = LOCAL_TIME ( 12, 41, 31.00000000000000000, #135 ) ;
#97 = ORIENTED_EDGE ( 'NONE', *, *, #240, .F. ) ;
#98 = CARTESIAN_POINT ( 'NONE',  ( 0.000000000000000000, 0.000000000000000000, 0.000000000000000000 ) ) ;
#99 = EDGE_CURVE ( 'NONE', #19, #89, #153, .T. ) ;
#100 = APPROVAL ( #20, 'NEURÈENÝ' ) ;
#101 = LOCAL_TIME ( 12, 41, 31.00000000000000000, #164 ) ;
#102 = CIRCLE ( 'NONE', #160, 0.5000000000000000000 ) ;
#103 = APPROVAL_PERSON_ORGANIZATION ( #107, #154, #233 ) ;
#104 = APPLICATION_CONTEXT ( 'configuration controlled 3d designs of mechanical parts and assemblies' ) ;
#105 = DATE_TIME_ROLE ( 'creation_date' ) ;
#106 = DIRECTION ( 'NONE',  ( 0.000000000000000000, 0.000000000000000000, 1.000000000000000000 ) ) ;
#107 = PERSON_AND_ORGANIZATION ( #200, #230 ) ;
#108 = DIRECTION ( 'NONE',  ( -1.000000000000000000, 0.000000000000000000, 0.000000000000000000 ) ) ;
#109 = SHAPE_DEFINITION_REPRESENTATION ( #268, #145 ) ;
#110 = CARTESIAN_POINT ( 'NONE',  ( -1.250000000000000000, 0.000000000000000000, 0.000000000000000000 ) ) ;
#111 = ORIENTED_EDGE ( 'NONE', *, *, #222, .T. ) ;
#112 = CIRCLE ( 'NONE', #155, 1.250000000000000000 ) ;
#113 = VERTEX_POINT ( 'NONE', #276 ) ;
#114 = COORDINATED_UNIVERSAL_TIME_OFFSET ( 1, 0, .AHEAD. ) ;
#115 = DIRECTION ( 'NONE',  ( -1.000000000000000000, 0.000000000000000000, 0.000000000000000000 ) ) ;
#116 = ORIENTED_EDGE ( 'NONE', *, *, #180, .F. ) ;
#117 = AXIS2_PLACEMENT_3D ( 'NONE', #85, #43, #63 ) ;
#118 = CARTESIAN_POINT ( 'NONE',  ( 0.5000000000000000000, 6.123233995736766036E-17, 161.2000000000000171 ) ) ;
#119 = CARTESIAN_POINT ( 'NONE',  ( 1.250000000000000000, 1.530808498934191571E-16, 1.199999999999999956 ) ) ;
#120 = DIRECTION ( 'NONE',  ( 0.000000000000000000, 0.000000000000000000, 1.000000000000000000 ) ) ;
#121 = DIRECTION ( 'NONE',  ( 1.000000000000000000, 0.000000000000000000, -0.000000000000000000 ) ) ;
#122 = EDGE_CURVE ( 'NONE', #19, #141, #4, .T. ) ;
#123 = ORIENTED_EDGE ( 'NONE', *, *, #190, .F. ) ;
#124 = AXIS2_PLACEMENT_3D ( 'NONE', #242, #149, #121 ) ;
#125 = VERTEX_POINT ( 'NONE', #161 ) ;
#126 = CC_DESIGN_DATE_AND_TIME_ASSIGNMENT ( #16, #105, ( #205 ) ) ;
#127 = CIRCLE ( 'NONE', #296, 1.250000000000000000 ) ;
#128 = AXIS2_PLACEMENT_3D ( 'NONE', #261, #192, #108 ) ;
#129 = ADVANCED_FACE ( 'NONE', ( #258, #136 ), #265, .T. ) ;
#130 = ADVANCED_FACE ( 'NONE', ( #28 ), #140, .T. ) ;
#131 = PERSON_AND_ORGANIZATION_ROLE ( 'creator' ) ;
#132 = COORDINATED_UNIVERSAL_TIME_OFFSET ( 1, 0, .AHEAD. ) ;
#133 = EDGE_CURVE ( 'NONE', #171, #113, #204, .T. ) ;
#134 = DIRECTION ( 'NONE',  ( -0.000000000000000000, -0.000000000000000000, -1.000000000000000000 ) ) ;
#135 = COORDINATED_UNIVERSAL_TIME_OFFSET ( 1, 0, .AHEAD. ) ;
#136 = FACE_OUTER_BOUND ( 'NONE', #197, .T. ) ;
#137 = ORIENTED_EDGE ( 'NONE', *, *, #99, .T. ) ;
#138 = PERSON_AND_ORGANIZATION_ROLE ( 'design_owner' ) ;
#139 =( NAMED_UNIT ( * ) PLANE_ANGLE_UNIT ( ) SI_UNIT ( $, .RADIAN. ) );
#140 = CYLINDRICAL_SURFACE ( 'NONE', #264, 0.5000000000000000000 ) ;
#141 = VERTEX_POINT ( 'NONE', #110 ) ;
#142 = FACE_OUTER_BOUND ( 'NONE', #292, .T. ) ;
#143 = DIRECTION ( 'NONE',  ( -0.000000000000000000, -0.000000000000000000, -1.000000000000000000 ) ) ;
#144 = ORIENTED_EDGE ( 'NONE', *, *, #295, .F. ) ;
#145 = ADVANCED_BREP_SHAPE_REPRESENTATION ( '1da8', ( #252, #13 ), #58 ) ;
#146 = APPLICATION_CONTEXT ( 'configuration controlled 3d designs of mechanical parts and assemblies' ) ;
#147 = FACE_OUTER_BOUND ( 'NONE', #235, .T. ) ;
#148 = ORIENTED_EDGE ( 'NONE', *, *, #3, .T. ) ;
#149 = DIRECTION ( 'NONE',  ( 0.000000000000000000, 0.000000000000000000, 1.000000000000000000 ) ) ;
#150 = ORIENTED_EDGE ( 'NONE', *, *, #190, .T. ) ;
#151 = DIRECTION ( 'NONE',  ( 1.000000000000000000, 0.000000000000000000, 0.000000000000000000 ) ) ;
#152 = AXIS2_PLACEMENT_3D ( 'NONE', #71, #245, #75 ) ;
#153 = CIRCLE ( 'NONE', #41, 1.250000000000000000 ) ;
#154 = APPROVAL ( #231, 'NEURÈENÝ' ) ;
#155 = AXIS2_PLACEMENT_3D ( 'NONE', #33, #51, #2 ) ;
#156 = CC_DESIGN_DATE_AND_TIME_ASSIGNMENT ( #277, #17, ( #294 ) ) ;
#157 = CIRCLE ( 'NONE', #275, 1.250000000000000000 ) ;
#158 = ADVANCED_FACE ( 'NONE', ( #232 ), #251, .F. ) ;
#159 = APPROVAL_STATUS ( 'not_yet_approved' ) ;
#160 = AXIS2_PLACEMENT_3D ( 'NONE', #221, #167, #270 ) ;
#161 = CARTESIAN_POINT ( 'NONE',  ( 1.250000000000000000, 1.530808498934191571E-16, 0.000000000000000000 ) ) ;
#162 = CALENDAR_DATE ( 2022, 7, 7 ) ;
#163 = CARTESIAN_POINT ( 'NONE',  ( -1.250000000000000000, 0.000000000000000000, 1.199999999999999956 ) ) ;
#164 = COORDINATED_UNIVERSAL_TIME_OFFSET ( 1, 0, .AHEAD. ) ;
#165 = DIRECTION ( 'NONE',  ( 0.000000000000000000, -1.000000000000000000, 0.000000000000000000 ) ) ;
#166 = ORIENTED_EDGE ( 'NONE', *, *, #122, .T. ) ;
#167 = DIRECTION ( 'NONE',  ( 0.000000000000000000, 0.000000000000000000, 1.000000000000000000 ) ) ;
#168 = CARTESIAN_POINT ( 'NONE',  ( 0.000000000000000000, 0.000000000000000000, 1.199999999999999956 ) ) ;
#169 = EDGE_LOOP ( 'NONE', ( #279, #150, #220, #6 ) ) ;
#170 =( NAMED_UNIT ( * ) SI_UNIT ( $, .STERADIAN. ) SOLID_ANGLE_UNIT ( ) );
#171 = VERTEX_POINT ( 'NONE', #88 ) ;
#172 = ORIENTED_EDGE ( 'NONE', *, *, #73, .F. ) ;
#173 = PRODUCT ( '1da8', '1da8', '', ( #260 ) ) ;
#174 = EDGE_LOOP ( 'NONE', ( #123, #216, #166, #285 ) ) ;
#175 = APPROVAL ( #159, 'NEURÈENÝ' ) ;
#176 = PLANE ( 'NONE',  #229 ) ;
#177 = VECTOR ( 'NONE', #191, 1000.000000000000000 ) ;
#178 = EDGE_CURVE ( 'NONE', #269, #289, #21, .T. ) ;
#179 = CIRCLE ( 'NONE', #117, 0.5000000000000000000 ) ;
#180 = EDGE_CURVE ( 'NONE', #289, #5, #253, .T. ) ;
#181 = PRODUCT_DEFINITION_FORMATION_WITH_SPECIFIED_SOURCE ( 'LIBOVOLNÝ', '', #173, .NOT_KNOWN. ) ;
#182 = CLOSED_SHELL ( 'NONE', ( #254, #130, #26, #12, #129, #212, #23, #199, #158 ) ) ;
#183 = DIRECTION ( 'NONE',  ( -0.000000000000000000, -0.000000000000000000, -1.000000000000000000 ) ) ;
#184 = PERSON_AND_ORGANIZATION ( #200, #230 ) ;
#185 = AXIS2_PLACEMENT_3D ( 'NONE', #168, #234, #256 ) ;
#186 = DIRECTION ( 'NONE',  ( 0.000000000000000000, 0.000000000000000000, 1.000000000000000000 ) ) ;
#187 = PERSON_AND_ORGANIZATION_ROLE ( 'classification_officer' ) ;
#188 = CARTESIAN_POINT ( 'NONE',  ( 0.000000000000000000, 0.000000000000000000, 161.2000000000000171 ) ) ;
#189 = ORIENTED_EDGE ( 'NONE', *, *, #1, .F. ) ;
#190 = EDGE_CURVE ( 'NONE', #89, #125, #306, .T. ) ;
#191 = DIRECTION ( 'NONE',  ( -0.000000000000000000, -0.000000000000000000, -1.000000000000000000 ) ) ;
#192 = DIRECTION ( 'NONE',  ( -0.000000000000000000, -0.000000000000000000, -1.000000000000000000 ) ) ;
#193 = ORIENTED_EDGE ( 'NONE', *, *, #36, .T. ) ;
#194 = APPROVAL_DATE_TIME ( #299, #154 ) ;
#195 = CARTESIAN_POINT ( 'NONE',  ( 0.000000000000000000, 0.000000000000000000, 1.400000000000012346 ) ) ;
#196 = DIRECTION ( 'NONE',  ( -1.000000000000000000, 0.000000000000000000, 0.000000000000000000 ) ) ;
#197 = EDGE_LOOP ( 'NONE', ( #137, #223 ) ) ;
#198 = AXIS2_PLACEMENT_3D ( 'NONE', #14, #106, #83 ) ;
#199 = ADVANCED_FACE ( 'NONE', ( #48 ), #176, .T. ) ;
#200 = PERSON ( 'NEURÈENÝ', 'NEURÈENÝ', 'NEURÈENÝ', ('NEURÈENÝ'), ('NEURÈENÝ'), ('NEURÈENÝ') ) ;
#201 = LOCAL_TIME ( 12, 41, 31.00000000000000000, #42 ) ;
#202 = CC_DESIGN_SECURITY_CLASSIFICATION ( #294, ( #181 ) ) ;
#203 = AXIS2_PLACEMENT_3D ( 'NONE', #238, #72, #302 ) ;
#204 = LINE ( 'NONE', #18, #301 ) ;
#205 = PRODUCT_DEFINITION ( 'NEZNÁMÝ', '', #181, #273 ) ;
#206 = PERSON_AND_ORGANIZATION ( #200, #230 ) ;
#207 = DIRECTION ( 'NONE',  ( 1.000000000000000000, 0.000000000000000000, 0.000000000000000000 ) ) ;
#208 = APPROVAL_ROLE ( '' ) ;
#209 = CIRCLE ( 'NONE', #152, 0.6999999999999999556 ) ;
#210 = CARTESIAN_POINT ( 'NONE',  ( 0.6999999999999999556, 0.000000000000000000, 1.400000000000012346 ) ) ;
#211 = ORIENTED_EDGE ( 'NONE', *, *, #133, .F. ) ;
#212 = ADVANCED_FACE ( 'NONE', ( #30 ), #291, .F. ) ;
#213 = PERSON_AND_ORGANIZATION ( #200, #230 ) ;
#214 = DIRECTION ( 'NONE',  ( 0.000000000000000000, 0.000000000000000000, 1.000000000000000000 ) ) ;
#215 = CARTESIAN_POINT ( 'NONE',  ( 0.5000000000000000000, 6.123233995736766036E-17, 161.2000000000000171 ) ) ;
#216 = ORIENTED_EDGE ( 'NONE', *, *, #99, .F. ) ;
#217 = SECURITY_CLASSIFICATION_LEVEL ( 'unclassified' ) ;
#218 = DIRECTION ( 'NONE',  ( 0.000000000000000000, 0.000000000000000000, 1.000000000000000000 ) ) ;
#219 = DIRECTION ( 'NONE',  ( 0.000000000000000000, 0.000000000000000000, 1.000000000000000000 ) ) ;
#220 = ORIENTED_EDGE ( 'NONE', *, *, #1, .T. ) ;
#221 = CARTESIAN_POINT ( 'NONE',  ( 0.000000000000000000, 0.000000000000000000, 161.2000000000000171 ) ) ;
#222 = EDGE_CURVE ( 'NONE', #5, #67, #86, .T. ) ;
#223 = ORIENTED_EDGE ( 'NONE', *, *, #274, .T. ) ;
#224 = APPROVAL_PERSON_ORGANIZATION ( #64, #100, #280 ) ;
#225 = VECTOR ( 'NONE', #143, 1000.000000000000000 ) ;
#226 = APPROVAL_PERSON_ORGANIZATION ( #206, #175, #208 ) ;
#227 = AXIS2_PLACEMENT_3D ( 'NONE', #7, #248, #307 ) ;
#228 = EDGE_LOOP ( 'NONE', ( #271, #288 ) ) ;
#229 = AXIS2_PLACEMENT_3D ( 'NONE', #267, #237, #94 ) ;
#230 = ORGANIZATION ( 'NEURÈENÝ', 'NEURÈENÝ', '' ) ;
#231 = APPROVAL_STATUS ( 'not_yet_approved' ) ;
#232 = FACE_OUTER_BOUND ( 'NONE', #244, .T. ) ;
#233 = APPROVAL_ROLE ( '' ) ;
#234 = DIRECTION ( 'NONE',  ( 0.000000000000000000, 0.000000000000000000, 1.000000000000000000 ) ) ;
#235 = EDGE_LOOP ( 'NONE', ( #262, #78, #266, #193 ) ) ;
#236 = APPROVAL_DATE_TIME ( #259, #100 ) ;
#237 = DIRECTION ( 'NONE',  ( 0.000000000000000000, 0.000000000000000000, 1.000000000000000000 ) ) ;
#238 = CARTESIAN_POINT ( 'NONE',  ( 0.000000000000000000, 0.000000000000000000, 1.400000000000012346 ) ) ;
#239 = EDGE_LOOP ( 'NONE', ( #111, #22 ) ) ;
#240 = EDGE_CURVE ( 'NONE', #141, #125, #112, .T. ) ;
#241 = PERSON_AND_ORGANIZATION ( #200, #230 ) ;
#242 = CARTESIAN_POINT ( 'NONE',  ( 0.000000000000000000, 0.000000000000000000, 0.000000000000000000 ) ) ;
#243 = DIRECTION ( 'NONE',  ( -0.000000000000000000, -0.000000000000000000, -1.000000000000000000 ) ) ;
#244 = EDGE_LOOP ( 'NONE', ( #282, #172, #53, #74 ) ) ;
#245 = DIRECTION ( 'NONE',  ( -0.000000000000000000, -0.000000000000000000, -1.000000000000000000 ) ) ;
#246 = DIRECTION ( 'NONE',  ( -0.000000000000000000, -0.000000000000000000, -1.000000000000000000 ) ) ;
#247 =( LENGTH_UNIT ( ) NAMED_UNIT ( * ) SI_UNIT ( .MILLI., .METRE. ) );
#248 = DIRECTION ( 'NONE',  ( 1.224646799147353207E-16, 1.000000000000000000, -0.000000000000000000 ) ) ;
#249 = DIRECTION ( 'NONE',  ( 1.000000000000000000, 0.000000000000000000, 0.000000000000000000 ) ) ;
#250 = EDGE_CURVE ( 'NONE', #67, #5, #209, .T. ) ;
#251 = TOROIDAL_SURFACE ( 'NONE', #198, 0.6999999999999999556, 0.2000000000000000111 ) ;
#252 = MANIFOLD_SOLID_BREP ( 'Zaoblit1', #182 ) ;
#253 = CIRCLE ( 'NONE', #54, 0.2000000000000000944 ) ;
#254 = ADVANCED_FACE ( 'NONE', ( #142 ), #60, .F. ) ;
#255 = CALENDAR_DATE ( 2022, 7, 7 ) ;
#256 = DIRECTION ( 'NONE',  ( 1.000000000000000000, 0.000000000000000000, -0.000000000000000000 ) ) ;
#257 = APPLICATION_PROTOCOL_DEFINITION ( 'international standard', 'config_control_design', 1994, #146 ) ;
#258 = FACE_BOUND ( 'NONE', #239, .T. ) ;
#259 = DATE_AND_TIME ( #87, #96 ) ;
#260 = MECHANICAL_CONTEXT ( 'NONE', #104, 'mechanical' ) ;
#261 = CARTESIAN_POINT ( 'NONE',  ( 0.000000000000000000, 0.000000000000000000, 1.199999999999999956 ) ) ;
#262 = ORIENTED_EDGE ( 'NONE', *, *, #178, .F. ) ;
#263 = PERSON_AND_ORGANIZATION_ROLE ( 'design_supplier' ) ;
#264 = AXIS2_PLACEMENT_3D ( 'NONE', #49, #40, #69 ) ;
#265 = PLANE ( 'NONE',  #185 ) ;
#266 = ORIENTED_EDGE ( 'NONE', *, *, #133, .T. ) ;
#267 = CARTESIAN_POINT ( 'NONE',  ( 0.000000000000000000, 0.000000000000000000, 161.2000000000000171 ) ) ;
#268 = PRODUCT_DEFINITION_SHAPE ( 'NONE', 'NONE',  #205 ) ;
#269 = VERTEX_POINT ( 'NONE', #118 ) ;
#270 = DIRECTION ( 'NONE',  ( 1.000000000000000000, 0.000000000000000000, 0.000000000000000000 ) ) ;
#271 = ORIENTED_EDGE ( 'NONE', *, *, #90, .T. ) ;
#272 = CC_DESIGN_PERSON_AND_ORGANIZATION_ASSIGNMENT ( #304, #187, ( #294 ) ) ;
#273 = DESIGN_CONTEXT ( 'detailed design', #146, 'design' ) ;
#274 = EDGE_CURVE ( 'NONE', #89, #19, #127, .T. ) ;
#275 = AXIS2_PLACEMENT_3D ( 'NONE', #70, #120, #45 ) ;
#276 = CARTESIAN_POINT ( 'NONE',  ( -0.5000000000000000000, 0.000000000000000000, 1.400000000000012346 ) ) ;
#277 = DATE_AND_TIME ( #286, #38 ) ;
#278 = DIRECTION ( 'NONE',  ( 1.000000000000000000, 0.000000000000000000, 0.000000000000000000 ) ) ;
#279 = ORIENTED_EDGE ( 'NONE', *, *, #274, .F. ) ;
#280 = APPROVAL_ROLE ( '' ) ;
#281 = CARTESIAN_POINT ( 'NONE',  ( 0.000000000000000000, 0.000000000000000000, 1.400000000000012346 ) ) ;
#282 = ORIENTED_EDGE ( 'NONE', *, *, #3, .F. ) ;
#283 = CARTESIAN_POINT ( 'NONE',  ( 0.000000000000000000, 0.000000000000000000, 1.199999999999999956 ) ) ;
#284 = CARTESIAN_POINT ( 'NONE',  ( 0.000000000000000000, 0.000000000000000000, 1.199999999999999956 ) ) ;
#285 = ORIENTED_EDGE ( 'NONE', *, *, #240, .T. ) ;
#286 = CALENDAR_DATE ( 2022, 7, 7 ) ;
#287 = CC_DESIGN_APPROVAL ( #154, ( #205 ) ) ;
#288 = ORIENTED_EDGE ( 'NONE', *, *, #295, .T. ) ;
#289 = VERTEX_POINT ( 'NONE', #293 ) ;
#290 = AXIS2_PLACEMENT_3D ( 'NONE', #281, #219, #207 ) ;
#291 = PLANE ( 'NONE',  #124 ) ;
#292 = EDGE_LOOP ( 'NONE', ( #29, #148, #93, #116 ) ) ;
#293 = CARTESIAN_POINT ( 'NONE',  ( 0.5000000000000000000, 6.123233995736766036E-17, 1.400000000000012346 ) ) ;
#294 = SECURITY_CLASSIFICATION ( '', '', #217 ) ;
#295 = EDGE_CURVE ( 'NONE', #269, #171, #102, .T. ) ;
#296 = AXIS2_PLACEMENT_3D ( 'NONE', #283, #218, #249 ) ;
#297 = AXIS2_PLACEMENT_3D ( 'NONE', #188, #243, #115 ) ;
#298 = CYLINDRICAL_SURFACE ( 'NONE', #128, 1.250000000000000000 ) ;
#299 = DATE_AND_TIME ( #255, #101 ) ;
#300 = CARTESIAN_POINT ( 'NONE',  ( -0.6999999999999999556, 8.572527594031473190E-17, 1.200000000000006173 ) ) ;
#301 = VECTOR ( 'NONE', #134, 1000.000000000000000 ) ;
#302 = DIRECTION ( 'NONE',  ( 1.000000000000000000, 0.000000000000000000, 0.000000000000000000 ) ) ;
#303 = FACE_OUTER_BOUND ( 'NONE', #174, .T. ) ;
#304 = PERSON_AND_ORGANIZATION ( #200, #230 ) ;
#305 = CARTESIAN_POINT ( 'NONE',  ( 0.000000000000000000, 0.000000000000000000, 1.199999999999999956 ) ) ;
#306 = LINE ( 'NONE', #119, #177 ) ;
#307 = DIRECTION ( 'NONE',  ( -1.000000000000000000, 1.224646799147352714E-16, 0.000000000000000000 ) ) ;
ENDSEC;
END-ISO-10303-21;
