ISO-10303-21;
HEADER;
FILE_DESCRIPTION (( 'STEP AP203' ),
    '1' );
FILE_NAME ('c940.STEP',
    '2023-02-12T12:37:24',
    ( '' ),
    ( '' ),
    'SwSTEP 2.0',
    'SolidWorks 2019',
    '' );
FILE_SCHEMA (( 'CONFIG_CONTROL_DESIGN' ));
ENDSEC;

DATA;
#1 = PERSON_AND_ORGANIZATION_ROLE ( 'creator' ) ;
#2 = CALENDAR_DATE ( 2023, 12, 2 ) ;
#3 = CC_DESIGN_APPROVAL ( #121, ( #218 ) ) ;
#4 = EDGE_CURVE ( 'NONE', #201, #245, #236, .T. ) ;
#5 = CIRCLE ( 'NONE', #148, 2.100000000000000089 ) ;
#6 = DIRECTION ( 'NONE',  ( -0.000000000000000000, -0.000000000000000000, -1.000000000000000000 ) ) ;
#7 = CARTESIAN_POINT ( 'NONE',  ( 0.000000000000000000, 0.000000000000000000, 3.000000000000000000 ) ) ;
#8 = DIRECTION ( 'NONE',  ( 1.000000000000000000, 0.000000000000000000, 0.000000000000000000 ) ) ;
#9 = APPROVAL_PERSON_ORGANIZATION ( #233, #66, #250 ) ;
#10 = DIRECTION ( 'NONE',  ( 1.000000000000000000, 0.000000000000000000, 0.000000000000000000 ) ) ;
#11 = DIRECTION ( 'NONE',  ( 1.000000000000000000, 0.000000000000000000, 0.000000000000000000 ) ) ;
#12 = ORIENTED_EDGE ( 'NONE', *, *, #177, .F. ) ;
#13 = CARTESIAN_POINT ( 'NONE',  ( 2.100000000000000089, 2.571758278209441464E-16, 125.0000000000000000 ) ) ;
#14 = ORIENTED_EDGE ( 'NONE', *, *, #92, .T. ) ;
#15 = CC_DESIGN_APPROVAL ( #66, ( #123 ) ) ;
#16 = DIRECTION ( 'NONE',  ( 1.000000000000000000, 0.000000000000000000, 0.000000000000000000 ) ) ;
#17 = PERSON_AND_ORGANIZATION_ROLE ( 'classification_officer' ) ;
#18 = EDGE_LOOP ( 'NONE', ( #156, #41, #90, #45 ) ) ;
#19 = SHAPE_DEFINITION_REPRESENTATION ( #65, #224 ) ;
#20 = DIRECTION ( 'NONE',  ( -0.000000000000000000, -0.000000000000000000, -1.000000000000000000 ) ) ;
#21 = VERTEX_POINT ( 'NONE', #171 ) ;
#22 = DATE_AND_TIME ( #54, #215 ) ;
#23 = EDGE_CURVE ( 'NONE', #201, #114, #36, .T. ) ;
#24 = DIRECTION ( 'NONE',  ( -0.000000000000000000, -0.000000000000000000, -1.000000000000000000 ) ) ;
#25 = DIRECTION ( 'NONE',  ( 1.000000000000000000, 0.000000000000000000, 0.000000000000000000 ) ) ;
#26 = CC_DESIGN_DATE_AND_TIME_ASSIGNMENT ( #228, #157, ( #218 ) ) ;
#27 = UNCERTAINTY_MEASURE_WITH_UNIT (LENGTH_MEASURE( 1.000000000000000082E-05 ), #119, 'distance_accuracy_value', 'NONE');
#28 = CARTESIAN_POINT ( 'NONE',  ( 0.000000000000000000, 0.000000000000000000, 3.000000000000000000 ) ) ;
#29 = PRODUCT_RELATED_PRODUCT_CATEGORY ( 'detail', '', ( #40 ) ) ;
#30 = DIRECTION ( 'NONE',  ( 1.000000000000000000, 0.000000000000000000, -0.000000000000000000 ) ) ;
#31 = CARTESIAN_POINT ( 'NONE',  ( 0.000000000000000000, 0.000000000000000000, 125.0000000000000000 ) ) ;
#32 = PERSON_AND_ORGANIZATION ( #203, #254 ) ;
#33 = AXIS2_PLACEMENT_3D ( 'NONE', #221, #132, #165 ) ;
#34 = COORDINATED_UNIVERSAL_TIME_OFFSET ( 1, 0, .AHEAD. ) ;
#35 = APPROVAL_ROLE ( '' ) ;
#36 = CIRCLE ( 'NONE', #98, 4.000000000000000000 ) ;
#37 = LOCAL_TIME ( 13, 37, 24.00000000000000000, #74 ) ;
#38 = LOCAL_TIME ( 13, 37, 24.00000000000000000, #73 ) ;
#39 = EDGE_CURVE ( 'NONE', #114, #94, #241, .T. ) ;
#40 = PRODUCT ( 'c940', 'c940', '', ( #213 ) ) ;
#41 = ORIENTED_EDGE ( 'NONE', *, *, #251, .F. ) ;
#42 = ORIENTED_EDGE ( 'NONE', *, *, #39, .F. ) ;
#43 = CARTESIAN_POINT ( 'NONE',  ( 0.000000000000000000, 0.000000000000000000, 3.000000000000000000 ) ) ;
#44 = PLANE ( 'NONE',  #237 ) ;
#45 = ORIENTED_EDGE ( 'NONE', *, *, #83, .T. ) ;
#46 = DIRECTION ( 'NONE',  ( 1.000000000000000000, 0.000000000000000000, 0.000000000000000000 ) ) ;
#47 = AXIS2_PLACEMENT_3D ( 'NONE', #31, #189, #91 ) ;
#48 = CARTESIAN_POINT ( 'NONE',  ( 0.000000000000000000, 0.000000000000000000, 125.0000000000000000 ) ) ;
#49 = CARTESIAN_POINT ( 'NONE',  ( 2.100000000000000089, 2.571758278209441464E-16, 125.0000000000000000 ) ) ;
#50 = APPROVAL_PERSON_ORGANIZATION ( #212, #200, #35 ) ;
#51 = FACE_OUTER_BOUND ( 'NONE', #185, .T. ) ;
#52 = APPLICATION_PROTOCOL_DEFINITION ( 'international standard', 'config_control_design', 1994, #139 ) ;
#53 = ADVANCED_FACE ( 'NONE', ( #141 ), #120, .T. ) ;
#54 = CALENDAR_DATE ( 2023, 12, 2 ) ;
#55 = CIRCLE ( 'NONE', #193, 2.100000000000000089 ) ;
#56 = ORIENTED_EDGE ( 'NONE', *, *, #173, .T. ) ;
#57 = DIRECTION ( 'NONE',  ( 1.000000000000000000, 0.000000000000000000, 0.000000000000000000 ) ) ;
#58 = PRODUCT_DEFINITION_FORMATION_WITH_SPECIFIED_SOURCE ( 'LIBOVOLNÝ', '', #40, .NOT_KNOWN. ) ;
#59 = CC_DESIGN_PERSON_AND_ORGANIZATION_ASSIGNMENT ( #116, #97, ( #218 ) ) ;
#60 = DIRECTION ( 'NONE',  ( 0.000000000000000000, 0.000000000000000000, 1.000000000000000000 ) ) ;
#61 = PERSON_AND_ORGANIZATION ( #203, #254 ) ;
#62 = EDGE_CURVE ( 'NONE', #94, #245, #239, .T. ) ;
#63 = ORIENTED_EDGE ( 'NONE', *, *, #4, .T. ) ;
#64 = FACE_OUTER_BOUND ( 'NONE', #88, .T. ) ;
#65 = PRODUCT_DEFINITION_SHAPE ( 'NONE', 'NONE',  #218 ) ;
#66 = APPROVAL ( #168, 'NEURÈENÝ' ) ;
#67 = DIRECTION ( 'NONE',  ( 1.000000000000000000, 0.000000000000000000, -0.000000000000000000 ) ) ;
#68 = LOCAL_TIME ( 13, 37, 24.00000000000000000, #34 ) ;
#69 = DIRECTION ( 'NONE',  ( 0.000000000000000000, 0.000000000000000000, 1.000000000000000000 ) ) ;
#70 = PLANE ( 'NONE',  #214 ) ;
#71 = EDGE_LOOP ( 'NONE', ( #113, #142, #244, #122 ) ) ;
#72 = EDGE_CURVE ( 'NONE', #199, #21, #222, .T. ) ;
#73 = COORDINATED_UNIVERSAL_TIME_OFFSET ( 1, 0, .AHEAD. ) ;
#74 = COORDINATED_UNIVERSAL_TIME_OFFSET ( 1, 0, .AHEAD. ) ;
#75 = AXIS2_PLACEMENT_3D ( 'NONE', #231, #60, #16 ) ;
#76 = APPROVAL_DATE_TIME ( #194, #121 ) ;
#77 = VECTOR ( 'NONE', #20, 1000.000000000000000 ) ;
#78 = APPROVAL_ROLE ( '' ) ;
#79 = ADVANCED_FACE ( 'NONE', ( #127 ), #249, .T. ) ;
#80 = CC_DESIGN_APPROVAL ( #200, ( #58 ) ) ;
#81 = DIRECTION ( 'NONE',  ( 0.000000000000000000, 0.000000000000000000, 1.000000000000000000 ) ) ;
#82 = AXIS2_PLACEMENT_3D ( 'NONE', #28, #104, #10 ) ;
#83 = EDGE_CURVE ( 'NONE', #86, #21, #55, .T. ) ;
#84 = CARTESIAN_POINT ( 'NONE',  ( -2.100000000000000089, 0.000000000000000000, 125.0000000000000000 ) ) ;
#85 = VECTOR ( 'NONE', #247, 1000.000000000000000 ) ;
#86 = VERTEX_POINT ( 'NONE', #105 ) ;
#87 = CYLINDRICAL_SURFACE ( 'NONE', #33, 4.000000000000000000 ) ;
#88 = EDGE_LOOP ( 'NONE', ( #210, #170 ) ) ;
#89 = DIRECTION ( 'NONE',  ( -1.000000000000000000, 0.000000000000000000, 0.000000000000000000 ) ) ;
#90 = ORIENTED_EDGE ( 'NONE', *, *, #177, .T. ) ;
#91 = DIRECTION ( 'NONE',  ( -1.000000000000000000, 0.000000000000000000, 0.000000000000000000 ) ) ;
#92 = EDGE_CURVE ( 'NONE', #199, #217, #196, .T. ) ;
#93 = CARTESIAN_POINT ( 'NONE',  ( -4.000000000000000000, 0.000000000000000000, 0.000000000000000000 ) ) ;
#94 = VERTEX_POINT ( 'NONE', #93 ) ;
#95 = PERSON_AND_ORGANIZATION_ROLE ( 'design_supplier' ) ;
#96 = ORIENTED_EDGE ( 'NONE', *, *, #92, .F. ) ;
#97 = PERSON_AND_ORGANIZATION_ROLE ( 'creator' ) ;
#98 = AXIS2_PLACEMENT_3D ( 'NONE', #255, #81, #25 ) ;
#99 = APPROVAL_DATE_TIME ( #22, #200 ) ;
#100 = DIRECTION ( 'NONE',  ( -1.000000000000000000, 0.000000000000000000, 0.000000000000000000 ) ) ;
#101 = APPROVAL_STATUS ( 'not_yet_approved' ) ;
#102 = CARTESIAN_POINT ( 'NONE',  ( -4.000000000000000000, 0.000000000000000000, 3.000000000000000000 ) ) ;
#103 = DESIGN_CONTEXT ( 'detailed design', #139, 'design' ) ;
#104 = DIRECTION ( 'NONE',  ( 0.000000000000000000, 0.000000000000000000, 1.000000000000000000 ) ) ;
#105 = CARTESIAN_POINT ( 'NONE',  ( -2.100000000000000089, 0.000000000000000000, 3.000000000000000000 ) ) ;
#106 = CARTESIAN_POINT ( 'NONE',  ( 0.000000000000000000, 0.000000000000000000, 0.000000000000000000 ) ) ;
#107 = CIRCLE ( 'NONE', #82, 4.000000000000000000 ) ;
#108 = EDGE_CURVE ( 'NONE', #21, #86, #5, .T. ) ;
#109 = CARTESIAN_POINT ( 'NONE',  ( 0.000000000000000000, 0.000000000000000000, 125.0000000000000000 ) ) ;
#110 = PERSON_AND_ORGANIZATION ( #203, #254 ) ;
#111 = FACE_BOUND ( 'NONE', #209, .T. ) ;
#112 = ORIENTED_EDGE ( 'NONE', *, *, #72, .T. ) ;
#113 = ORIENTED_EDGE ( 'NONE', *, *, #4, .F. ) ;
#114 = VERTEX_POINT ( 'NONE', #149 ) ;
#115 = CIRCLE ( 'NONE', #150, 4.000000000000000000 ) ;
#116 = PERSON_AND_ORGANIZATION ( #203, #254 ) ;
#117 = CC_DESIGN_PERSON_AND_ORGANIZATION_ASSIGNMENT ( #61, #1, ( #58 ) ) ;
#118 =( NAMED_UNIT ( * ) PLANE_ANGLE_UNIT ( ) SI_UNIT ( $, .RADIAN. ) );
#119 =( LENGTH_UNIT ( ) NAMED_UNIT ( * ) SI_UNIT ( .MILLI., .METRE. ) );
#120 = CYLINDRICAL_SURFACE ( 'NONE', #137, 2.100000000000000089 ) ;
#121 = APPROVAL ( #101, 'NEURÈENÝ' ) ;
#122 = ORIENTED_EDGE ( 'NONE', *, *, #62, .T. ) ;
#123 = SECURITY_CLASSIFICATION ( '', '', #253 ) ;
#124 = EDGE_LOOP ( 'NONE', ( #211, #186 ) ) ;
#125 = DIRECTION ( 'NONE',  ( 1.000000000000000000, 0.000000000000000000, 0.000000000000000000 ) ) ;
#126 = ORIENTED_EDGE ( 'NONE', *, *, #108, .T. ) ;
#127 = FACE_OUTER_BOUND ( 'NONE', #18, .T. ) ;
#128 = FACE_OUTER_BOUND ( 'NONE', #124, .T. ) ;
#129 = CARTESIAN_POINT ( 'NONE',  ( 0.000000000000000000, 0.000000000000000000, 125.0000000000000000 ) ) ;
#130 = VECTOR ( 'NONE', #134, 1000.000000000000000 ) ;
#131 = DIRECTION ( 'NONE',  ( 1.000000000000000000, 0.000000000000000000, -0.000000000000000000 ) ) ;
#132 = DIRECTION ( 'NONE',  ( -0.000000000000000000, -0.000000000000000000, -1.000000000000000000 ) ) ;
#133 = ORIENTED_EDGE ( 'NONE', *, *, #83, .F. ) ;
#134 = DIRECTION ( 'NONE',  ( -0.000000000000000000, -0.000000000000000000, -1.000000000000000000 ) ) ;
#135 = ADVANCED_FACE ( 'NONE', ( #111, #64 ), #70, .T. ) ;
#136 = DIRECTION ( 'NONE',  ( 0.000000000000000000, 0.000000000000000000, 1.000000000000000000 ) ) ;
#137 = AXIS2_PLACEMENT_3D ( 'NONE', #195, #24, #100 ) ;
#138 = EDGE_LOOP ( 'NONE', ( #96, #112, #126, #12 ) ) ;
#139 = APPLICATION_CONTEXT ( 'configuration controlled 3d designs of mechanical parts and assemblies' ) ;
#140 = APPLICATION_PROTOCOL_DEFINITION ( 'international standard', 'config_control_design', 1994, #179 ) ;
#141 = FACE_OUTER_BOUND ( 'NONE', #138, .T. ) ;
#142 = ORIENTED_EDGE ( 'NONE', *, *, #169, .F. ) ;
#143 = CARTESIAN_POINT ( 'NONE',  ( 0.000000000000000000, 0.000000000000000000, 0.000000000000000000 ) ) ;
#144 = EDGE_LOOP ( 'NONE', ( #151, #14 ) ) ;
#145 = CC_DESIGN_DATE_AND_TIME_ASSIGNMENT ( #172, #191, ( #123 ) ) ;
#146 = FACE_OUTER_BOUND ( 'NONE', #144, .T. ) ;
#147 = DIRECTION ( 'NONE',  ( 0.000000000000000000, 0.000000000000000000, 1.000000000000000000 ) ) ;
#148 = AXIS2_PLACEMENT_3D ( 'NONE', #7, #198, #125 ) ;
#149 = CARTESIAN_POINT ( 'NONE',  ( -4.000000000000000000, 0.000000000000000000, 3.000000000000000000 ) ) ;
#150 = AXIS2_PLACEMENT_3D ( 'NONE', #106, #69, #8 ) ;
#151 = ORIENTED_EDGE ( 'NONE', *, *, #251, .T. ) ;
#152 = ADVANCED_FACE ( 'NONE', ( #51 ), #87, .T. ) ;
#153 = DATE_AND_TIME ( #234, #38 ) ;
#154 = PERSON_AND_ORGANIZATION ( #203, #254 ) ;
#155 = VECTOR ( 'NONE', #6, 1000.000000000000000 ) ;
#156 = ORIENTED_EDGE ( 'NONE', *, *, #72, .F. ) ;
#157 = DATE_TIME_ROLE ( 'creation_date' ) ;
#158 = CC_DESIGN_SECURITY_CLASSIFICATION ( #123, ( #58 ) ) ;
#159 = ADVANCED_FACE ( 'NONE', ( #207 ), #167, .T. ) ;
#160 = ORIENTED_EDGE ( 'NONE', *, *, #23, .F. ) ;
#161 = CLOSED_SHELL ( 'NONE', ( #53, #152, #159, #135, #246, #79, #229 ) ) ;
#162 = CC_DESIGN_PERSON_AND_ORGANIZATION_ASSIGNMENT ( #110, #183, ( #40 ) ) ;
#163 = CARTESIAN_POINT ( 'NONE',  ( -2.100000000000000089, 0.000000000000000000, 125.0000000000000000 ) ) ;
#164 = CARTESIAN_POINT ( 'NONE',  ( 4.000000000000000000, 4.898587196589412829E-16, 0.000000000000000000 ) ) ;
#165 = DIRECTION ( 'NONE',  ( -1.000000000000000000, 0.000000000000000000, 0.000000000000000000 ) ) ;
#166 = CARTESIAN_POINT ( 'NONE',  ( 0.000000000000000000, 0.000000000000000000, 3.000000000000000000 ) ) ;
#167 = CYLINDRICAL_SURFACE ( 'NONE', #226, 4.000000000000000000 ) ;
#168 = APPROVAL_STATUS ( 'not_yet_approved' ) ;
#169 = EDGE_CURVE ( 'NONE', #114, #201, #107, .T. ) ;
#170 = ORIENTED_EDGE ( 'NONE', *, *, #23, .T. ) ;
#171 = CARTESIAN_POINT ( 'NONE',  ( 2.100000000000000089, 2.571758278209441464E-16, 3.000000000000000000 ) ) ;
#172 = DATE_AND_TIME ( #252, #68 ) ;
#173 = EDGE_CURVE ( 'NONE', #245, #94, #115, .T. ) ;
#174 = AXIS2_PLACEMENT_3D ( 'NONE', #109, #182, #11 ) ;
#175 = CALENDAR_DATE ( 2023, 12, 2 ) ;
#176 = APPROVAL_STATUS ( 'not_yet_approved' ) ;
#177 = EDGE_CURVE ( 'NONE', #217, #86, #184, .T. ) ;
#178 = AXIS2_PLACEMENT_3D ( 'NONE', #143, #136, #208 ) ;
#179 = APPLICATION_CONTEXT ( 'configuration controlled 3d designs of mechanical parts and assemblies' ) ;
#180 = LOCAL_TIME ( 13, 37, 24.00000000000000000, #235 ) ;
#181 = CARTESIAN_POINT ( 'NONE',  ( 0.000000000000000000, 0.000000000000000000, 0.000000000000000000 ) ) ;
#182 = DIRECTION ( 'NONE',  ( 0.000000000000000000, 0.000000000000000000, 1.000000000000000000 ) ) ;
#183 = PERSON_AND_ORGANIZATION_ROLE ( 'design_owner' ) ;
#184 = LINE ( 'NONE', #84, #85 ) ;
#185 = EDGE_LOOP ( 'NONE', ( #160, #63, #56, #42 ) ) ;
#186 = ORIENTED_EDGE ( 'NONE', *, *, #173, .F. ) ;
#187 = CC_DESIGN_PERSON_AND_ORGANIZATION_ASSIGNMENT ( #154, #17, ( #123 ) ) ;
#188 =( NAMED_UNIT ( * ) SI_UNIT ( $, .STERADIAN. ) SOLID_ANGLE_UNIT ( ) );
#189 = DIRECTION ( 'NONE',  ( -0.000000000000000000, -0.000000000000000000, -1.000000000000000000 ) ) ;
#190 = PERSON_AND_ORGANIZATION ( #203, #254 ) ;
#191 = DATE_TIME_ROLE ( 'classification_date' ) ;
#192 = COORDINATED_UNIVERSAL_TIME_OFFSET ( 1, 0, .AHEAD. ) ;
#193 = AXIS2_PLACEMENT_3D ( 'NONE', #166, #202, #46 ) ;
#194 = DATE_AND_TIME ( #175, #37 ) ;
#195 = CARTESIAN_POINT ( 'NONE',  ( 0.000000000000000000, 0.000000000000000000, 125.0000000000000000 ) ) ;
#196 = CIRCLE ( 'NONE', #248, 2.100000000000000089 ) ;
#197 = ORIENTED_EDGE ( 'NONE', *, *, #108, .F. ) ;
#198 = DIRECTION ( 'NONE',  ( 0.000000000000000000, 0.000000000000000000, 1.000000000000000000 ) ) ;
#199 = VERTEX_POINT ( 'NONE', #13 ) ;
#200 = APPROVAL ( #176, 'NEURÈENÝ' ) ;
#201 = VERTEX_POINT ( 'NONE', #243 ) ;
#202 = DIRECTION ( 'NONE',  ( 0.000000000000000000, 0.000000000000000000, 1.000000000000000000 ) ) ;
#203 = PERSON ( 'NEURÈENÝ', 'NEURÈENÝ', 'NEURÈENÝ', ('NEURÈENÝ'), ('NEURÈENÝ'), ('NEURÈENÝ') ) ;
#204 = PLANE ( 'NONE',  #205 ) ;
#205 = AXIS2_PLACEMENT_3D ( 'NONE', #181, #147, #131 ) ;
#206 = DIRECTION ( 'NONE',  ( 0.000000000000000000, 0.000000000000000000, 1.000000000000000000 ) ) ;
#207 = FACE_OUTER_BOUND ( 'NONE', #71, .T. ) ;
#208 = DIRECTION ( 'NONE',  ( 1.000000000000000000, 0.000000000000000000, 0.000000000000000000 ) ) ;
#209 = EDGE_LOOP ( 'NONE', ( #133, #197 ) ) ;
#210 = ORIENTED_EDGE ( 'NONE', *, *, #169, .T. ) ;
#211 = ORIENTED_EDGE ( 'NONE', *, *, #62, .F. ) ;
#212 = PERSON_AND_ORGANIZATION ( #203, #254 ) ;
#213 = MECHANICAL_CONTEXT ( 'NONE', #179, 'mechanical' ) ;
#214 = AXIS2_PLACEMENT_3D ( 'NONE', #240, #219, #67 ) ;
#215 = LOCAL_TIME ( 13, 37, 24.00000000000000000, #192 ) ;
#216 = CARTESIAN_POINT ( 'NONE',  ( 4.000000000000000000, 4.898587196589412829E-16, 3.000000000000000000 ) ) ;
#217 = VERTEX_POINT ( 'NONE', #163 ) ;
#218 = PRODUCT_DEFINITION ( 'NEZNÁMÝ', '', #58, #103 ) ;
#219 = DIRECTION ( 'NONE',  ( 0.000000000000000000, 0.000000000000000000, 1.000000000000000000 ) ) ;
#220 = APPROVAL_PERSON_ORGANIZATION ( #32, #121, #78 ) ;
#221 = CARTESIAN_POINT ( 'NONE',  ( 0.000000000000000000, 0.000000000000000000, 3.000000000000000000 ) ) ;
#222 = LINE ( 'NONE', #49, #130 ) ;
#223 = DIRECTION ( 'NONE',  ( -0.000000000000000000, -0.000000000000000000, -1.000000000000000000 ) ) ;
#224 = ADVANCED_BREP_SHAPE_REPRESENTATION ( 'c940', ( #238, #75 ), #242 ) ;
#225 = CC_DESIGN_PERSON_AND_ORGANIZATION_ASSIGNMENT ( #190, #95, ( #58 ) ) ;
#226 = AXIS2_PLACEMENT_3D ( 'NONE', #43, #223, #89 ) ;
#227 = APPROVAL_DATE_TIME ( #153, #66 ) ;
#228 = DATE_AND_TIME ( #2, #180 ) ;
#229 = ADVANCED_FACE ( 'NONE', ( #146 ), #44, .T. ) ;
#230 = DIRECTION ( 'NONE',  ( 0.000000000000000000, 0.000000000000000000, 1.000000000000000000 ) ) ;
#231 = CARTESIAN_POINT ( 'NONE',  ( 0.000000000000000000, 0.000000000000000000, 0.000000000000000000 ) ) ;
#232 = CIRCLE ( 'NONE', #174, 2.100000000000000089 ) ;
#233 = PERSON_AND_ORGANIZATION ( #203, #254 ) ;
#234 = CALENDAR_DATE ( 2023, 12, 2 ) ;
#235 = COORDINATED_UNIVERSAL_TIME_OFFSET ( 1, 0, .AHEAD. ) ;
#236 = LINE ( 'NONE', #216, #77 ) ;
#237 = AXIS2_PLACEMENT_3D ( 'NONE', #48, #206, #30 ) ;
#238 = MANIFOLD_SOLID_BREP ( 'Pøidat vysunutím3', #161 ) ;
#239 = CIRCLE ( 'NONE', #178, 4.000000000000000000 ) ;
#240 = CARTESIAN_POINT ( 'NONE',  ( 0.000000000000000000, 0.000000000000000000, 3.000000000000000000 ) ) ;
#241 = LINE ( 'NONE', #102, #155 ) ;
#242 =( GEOMETRIC_REPRESENTATION_CONTEXT ( 3 ) GLOBAL_UNCERTAINTY_ASSIGNED_CONTEXT ( ( #27 ) ) GLOBAL_UNIT_ASSIGNED_CONTEXT ( ( #119, #118, #188 ) ) REPRESENTATION_CONTEXT ( 'NONE', 'WORKASPACE' ) );
#243 = CARTESIAN_POINT ( 'NONE',  ( 4.000000000000000000, 4.898587196589412829E-16, 3.000000000000000000 ) ) ;
#244 = ORIENTED_EDGE ( 'NONE', *, *, #39, .T. ) ;
#245 = VERTEX_POINT ( 'NONE', #164 ) ;
#246 = ADVANCED_FACE ( 'NONE', ( #128 ), #204, .F. ) ;
#247 = DIRECTION ( 'NONE',  ( -0.000000000000000000, -0.000000000000000000, -1.000000000000000000 ) ) ;
#248 = AXIS2_PLACEMENT_3D ( 'NONE', #129, #230, #57 ) ;
#249 = CYLINDRICAL_SURFACE ( 'NONE', #47, 2.100000000000000089 ) ;
#250 = APPROVAL_ROLE ( '' ) ;
#251 = EDGE_CURVE ( 'NONE', #217, #199, #232, .T. ) ;
#252 = CALENDAR_DATE ( 2023, 12, 2 ) ;
#253 = SECURITY_CLASSIFICATION_LEVEL ( 'unclassified' ) ;
#254 = ORGANIZATION ( 'NEURÈENÝ', 'NEURÈENÝ', '' ) ;
#255 = CARTESIAN_POINT ( 'NONE',  ( 0.000000000000000000, 0.000000000000000000, 3.000000000000000000 ) ) ;
ENDSEC;
END-ISO-10303-21;
