ISO-10303-21;
HEADER;
FILE_DESCRIPTION (( 'STEP AP203' ),
    '1' );
FILE_NAME ('9398.STEP',
    '2022-07-07T09:57:29',
    ( '' ),
    ( '' ),
    'SwSTEP 2.0',
    'SolidWorks 2019',
    '' );
FILE_SCHEMA (( 'CONFIG_CONTROL_DESIGN' ));
ENDSEC;

DATA;
#1 = DIRECTION ( 'NONE',  ( 1.000000000000000000, 0.000000000000000000, 0.000000000000000000 ) ) ;
#2 = APPROVAL ( #195, 'NEURÈENÝ' ) ;
#3 = CARTESIAN_POINT ( 'NONE',  ( 0.000000000000000000, 0.000000000000000000, 5.000000000000000000 ) ) ;
#4 =( NAMED_UNIT ( * ) SI_UNIT ( $, .STERADIAN. ) SOLID_ANGLE_UNIT ( ) );
#5 = CC_DESIGN_APPROVAL ( #2, ( #194 ) ) ;
#6 = PERSON_AND_ORGANIZATION ( #82, #270 ) ;
#7 = ORIENTED_EDGE ( 'NONE', *, *, #52, .F. ) ;
#8 = VERTEX_POINT ( 'NONE', #64 ) ;
#9 = DATE_AND_TIME ( #132, #121 ) ;
#10 = EDGE_LOOP ( 'NONE', ( #138, #11, #220, #104 ) ) ;
#11 = ORIENTED_EDGE ( 'NONE', *, *, #44, .T. ) ;
#12 = FACE_OUTER_BOUND ( 'NONE', #202, .T. ) ;
#13 = ORIENTED_EDGE ( 'NONE', *, *, #190, .F. ) ;
#14 = PLANE ( 'NONE',  #171 ) ;
#15 = AXIS2_PLACEMENT_3D ( 'NONE', #153, #174, #268 ) ;
#16 = CYLINDRICAL_SURFACE ( 'NONE', #95, 7.000000000000000000 ) ;
#17 = CARTESIAN_POINT ( 'NONE',  ( 0.000000000000000000, 0.000000000000000000, 105.0000000000000142 ) ) ;
#18 = CARTESIAN_POINT ( 'NONE',  ( 0.000000000000000000, 0.000000000000000000, 105.0000000000000142 ) ) ;
#19 = CIRCLE ( 'NONE', #199, 4.700000000000000178 ) ;
#20 = CARTESIAN_POINT ( 'NONE',  ( 4.500000000000000888, 5.510910596163089556E-16, 5.199999999999996625 ) ) ;
#21 = CARTESIAN_POINT ( 'NONE',  ( 0.000000000000000000, 0.000000000000000000, 105.0000000000000142 ) ) ;
#22 = DATE_AND_TIME ( #288, #204 ) ;
#23 = PERSON_AND_ORGANIZATION_ROLE ( 'classification_officer' ) ;
#24 = ORIENTED_EDGE ( 'NONE', *, *, #137, .T. ) ;
#25 = PERSON_AND_ORGANIZATION ( #82, #270 ) ;
#26 = VERTEX_POINT ( 'NONE', #277 ) ;
#27 = CC_DESIGN_PERSON_AND_ORGANIZATION_ASSIGNMENT ( #25, #49, ( #194 ) ) ;
#28 = PERSON_AND_ORGANIZATION ( #82, #270 ) ;
#29 = VECTOR ( 'NONE', #47, 1000.000000000000000 ) ;
#30 = AXIS2_PLACEMENT_3D ( 'NONE', #241, #285, #97 ) ;
#31 = COORDINATED_UNIVERSAL_TIME_OFFSET ( 1, 0, .AHEAD. ) ;
#32 = DIRECTION ( 'NONE',  ( 0.000000000000000000, 0.000000000000000000, 1.000000000000000000 ) ) ;
#33 = CARTESIAN_POINT ( 'NONE',  ( 7.000000000000000000, 8.572527594031473190E-16, 0.000000000000000000 ) ) ;
#34 = AXIS2_PLACEMENT_3D ( 'NONE', #183, #32, #161 ) ;
#35 = APPROVAL_PERSON_ORGANIZATION ( #151, #296, #156 ) ;
#36 = DIRECTION ( 'NONE',  ( -0.000000000000000000, -0.000000000000000000, -1.000000000000000000 ) ) ;
#37 = EDGE_LOOP ( 'NONE', ( #88, #58, #127, #279 ) ) ;
#38 = FACE_OUTER_BOUND ( 'NONE', #294, .T. ) ;
#39 = EDGE_CURVE ( 'NONE', #26, #108, #234, .T. ) ;
#40 = CIRCLE ( 'NONE', #292, 4.700000000000000178 ) ;
#41 = AXIS2_PLACEMENT_3D ( 'NONE', #284, #240, #45 ) ;
#42 = CARTESIAN_POINT ( 'NONE',  ( 0.000000000000000000, 0.000000000000000000, 5.199999999999996625 ) ) ;
#43 = DIRECTION ( 'NONE',  ( 0.000000000000000000, 0.000000000000000000, 1.000000000000000000 ) ) ;
#44 = EDGE_CURVE ( 'NONE', #274, #164, #269, .T. ) ;
#45 = DIRECTION ( 'NONE',  ( 1.000000000000000000, 0.000000000000000000, 0.000000000000000000 ) ) ;
#46 = CIRCLE ( 'NONE', #238, 7.000000000000000000 ) ;
#47 = DIRECTION ( 'NONE',  ( -0.000000000000000000, -0.000000000000000000, -1.000000000000000000 ) ) ;
#48 = CARTESIAN_POINT ( 'NONE',  ( 0.000000000000000000, 0.000000000000000000, 5.000000000000000000 ) ) ;
#49 = PERSON_AND_ORGANIZATION_ROLE ( 'design_supplier' ) ;
#50 = DATE_TIME_ROLE ( 'classification_date' ) ;
#51 = COORDINATED_UNIVERSAL_TIME_OFFSET ( 1, 0, .AHEAD. ) ;
#52 = EDGE_CURVE ( 'NONE', #179, #274, #295, .T. ) ;
#53 = CALENDAR_DATE ( 2022, 7, 7 ) ;
#54 = DATE_TIME_ROLE ( 'creation_date' ) ;
#55 = CIRCLE ( 'NONE', #193, 4.500000000000000888 ) ;
#56 = ORIENTED_EDGE ( 'NONE', *, *, #44, .F. ) ;
#57 = TOROIDAL_SURFACE ( 'NONE', #41, 4.700000000000000178, 0.2000000000000000111 ) ;
#58 = ORIENTED_EDGE ( 'NONE', *, *, #298, .F. ) ;
#59 = CARTESIAN_POINT ( 'NONE',  ( -4.700000000000000178, 5.755839955992559655E-16, 5.199999999999996625 ) ) ;
#60 = DIRECTION ( 'NONE',  ( 0.000000000000000000, 0.000000000000000000, 1.000000000000000000 ) ) ;
#61 = SECURITY_CLASSIFICATION ( '', '', #247 ) ;
#62 = ORIENTED_EDGE ( 'NONE', *, *, #165, .T. ) ;
#63 = CC_DESIGN_PERSON_AND_ORGANIZATION_ASSIGNMENT ( #6, #23, ( #61 ) ) ;
#64 = CARTESIAN_POINT ( 'NONE',  ( 7.000000000000000000, 8.572527594031473190E-16, 5.000000000000000000 ) ) ;
#65 = FACE_OUTER_BOUND ( 'NONE', #293, .T. ) ;
#66 = AXIS2_PLACEMENT_3D ( 'NONE', #192, #287, #186 ) ;
#67 = DIRECTION ( 'NONE',  ( 0.000000000000000000, 0.000000000000000000, 1.000000000000000000 ) ) ;
#68 = CARTESIAN_POINT ( 'NONE',  ( -4.700000000000000178, 5.755839955992559655E-16, 4.999999999999998224 ) ) ;
#69 = DIRECTION ( 'NONE',  ( -0.000000000000000000, -0.000000000000000000, -1.000000000000000000 ) ) ;
#70 = DESIGN_CONTEXT ( 'detailed design', #159, 'design' ) ;
#71 = DIRECTION ( 'NONE',  ( 1.000000000000000000, 0.000000000000000000, -0.000000000000000000 ) ) ;
#72 = CC_DESIGN_DATE_AND_TIME_ASSIGNMENT ( #290, #50, ( #61 ) ) ;
#73 = PERSON_AND_ORGANIZATION_ROLE ( 'creator' ) ;
#74 = ADVANCED_FACE ( 'NONE', ( #38 ), #252, .F. ) ;
#75 = ORIENTED_EDGE ( 'NONE', *, *, #79, .F. ) ;
#76 = DIRECTION ( 'NONE',  ( 0.000000000000000000, 0.000000000000000000, 1.000000000000000000 ) ) ;
#77 = MECHANICAL_CONTEXT ( 'NONE', #272, 'mechanical' ) ;
#78 = CIRCLE ( 'NONE', #66, 7.000000000000000000 ) ;
#79 = EDGE_CURVE ( 'NONE', #8, #84, #141, .T. ) ;
#80 =( LENGTH_UNIT ( ) NAMED_UNIT ( * ) SI_UNIT ( .MILLI., .METRE. ) );
#81 = ORIENTED_EDGE ( 'NONE', *, *, #237, .T. ) ;
#82 = PERSON ( 'NEURÈENÝ', 'NEURÈENÝ', 'NEURÈENÝ', ('NEURÈENÝ'), ('NEURÈENÝ'), ('NEURÈENÝ') ) ;
#83 = DATE_AND_TIME ( #227, #255 ) ;
#84 = VERTEX_POINT ( 'NONE', #33 ) ;
#85 = DIRECTION ( 'NONE',  ( 1.224646799147353207E-16, 1.000000000000000000, -0.000000000000000000 ) ) ;
#86 = CC_DESIGN_SECURITY_CLASSIFICATION ( #61, ( #194 ) ) ;
#87 = ORIENTED_EDGE ( 'NONE', *, *, #102, .T. ) ;
#88 = ORIENTED_EDGE ( 'NONE', *, *, #137, .F. ) ;
#89 = CC_DESIGN_PERSON_AND_ORGANIZATION_ASSIGNMENT ( #101, #73, ( #194 ) ) ;
#90 = DIRECTION ( 'NONE',  ( -1.000000000000000000, 1.224646799147353454E-16, 0.000000000000000000 ) ) ;
#91 = AXIS2_PLACEMENT_3D ( 'NONE', #297, #258, #160 ) ;
#92 = ORIENTED_EDGE ( 'NONE', *, *, #102, .F. ) ;
#93 = DIRECTION ( 'NONE',  ( 1.000000000000000000, 0.000000000000000000, 0.000000000000000000 ) ) ;
#94 = DIRECTION ( 'NONE',  ( 0.000000000000000000, 0.000000000000000000, 1.000000000000000000 ) ) ;
#95 = AXIS2_PLACEMENT_3D ( 'NONE', #48, #148, #210 ) ;
#96 = FACE_OUTER_BOUND ( 'NONE', #37, .T. ) ;
#97 = DIRECTION ( 'NONE',  ( 0.000000000000000000, 0.000000000000000000, -1.000000000000000000 ) ) ;
#98 = DIRECTION ( 'NONE',  ( 1.000000000000000000, 0.000000000000000000, 0.000000000000000000 ) ) ;
#99 = VECTOR ( 'NONE', #69, 1000.000000000000000 ) ;
#100 = COORDINATED_UNIVERSAL_TIME_OFFSET ( 1, 0, .AHEAD. ) ;
#101 = PERSON_AND_ORGANIZATION ( #82, #270 ) ;
#102 = EDGE_CURVE ( 'NONE', #108, #84, #130, .T. ) ;
#103 = AXIS2_PLACEMENT_3D ( 'NONE', #21, #216, #117 ) ;
#104 = ORIENTED_EDGE ( 'NONE', *, *, #185, .F. ) ;
#105 = APPROVAL_DATE_TIME ( #223, #291 ) ;
#106 = VERTEX_POINT ( 'NONE', #135 ) ;
#107 = ORIENTED_EDGE ( 'NONE', *, *, #39, .F. ) ;
#108 = VERTEX_POINT ( 'NONE', #257 ) ;
#109 = AXIS2_PLACEMENT_3D ( 'NONE', #122, #67, #71 ) ;
#110 = CARTESIAN_POINT ( 'NONE',  ( 0.000000000000000000, 0.000000000000000000, 5.000000000000000000 ) ) ;
#111 = CC_DESIGN_PERSON_AND_ORGANIZATION_ASSIGNMENT ( #28, #266, ( #206 ) ) ;
#112 = ADVANCED_BREP_SHAPE_REPRESENTATION ( '9398', ( #139, #15 ), #150 ) ;
#113 = ADVANCED_FACE ( 'NONE', ( #232, #12 ), #14, .T. ) ;
#114 = CARTESIAN_POINT ( 'NONE',  ( -7.000000000000000000, 0.000000000000000000, 5.000000000000000000 ) ) ;
#115 = DIRECTION ( 'NONE',  ( 0.000000000000000000, 0.000000000000000000, 1.000000000000000000 ) ) ;
#116 = AXIS2_PLACEMENT_3D ( 'NONE', #256, #36, #301 ) ;
#117 = DIRECTION ( 'NONE',  ( -1.000000000000000000, 0.000000000000000000, 0.000000000000000000 ) ) ;
#118 = FACE_OUTER_BOUND ( 'NONE', #289, .T. ) ;
#119 = ADVANCED_FACE ( 'NONE', ( #209 ), #162, .T. ) ;
#120 = DIRECTION ( 'NONE',  ( 0.000000000000000000, 0.000000000000000000, 1.000000000000000000 ) ) ;
#121 = LOCAL_TIME ( 11, 57, 29.00000000000000000, #31 ) ;
#122 = CARTESIAN_POINT ( 'NONE',  ( 0.000000000000000000, 0.000000000000000000, 105.0000000000000142 ) ) ;
#123 = LINE ( 'NONE', #214, #99 ) ;
#124 =( NAMED_UNIT ( * ) PLANE_ANGLE_UNIT ( ) SI_UNIT ( $, .RADIAN. ) );
#125 = UNCERTAINTY_MEASURE_WITH_UNIT (LENGTH_MEASURE( 1.000000000000000082E-05 ), #80, 'distance_accuracy_value', 'NONE');
#126 = APPROVAL_ROLE ( '' ) ;
#127 = ORIENTED_EDGE ( 'NONE', *, *, #190, .T. ) ;
#128 = COORDINATED_UNIVERSAL_TIME_OFFSET ( 1, 0, .AHEAD. ) ;
#129 = ORIENTED_EDGE ( 'NONE', *, *, #149, .T. ) ;
#130 = CIRCLE ( 'NONE', #302, 7.000000000000000000 ) ;
#131 = CC_DESIGN_APPROVAL ( #296, ( #61 ) ) ;
#132 = CALENDAR_DATE ( 2022, 7, 7 ) ;
#133 = ORIENTED_EDGE ( 'NONE', *, *, #237, .F. ) ;
#134 = DIRECTION ( 'NONE',  ( 1.000000000000000000, 0.000000000000000000, 0.000000000000000000 ) ) ;
#135 = CARTESIAN_POINT ( 'NONE',  ( -4.500000000000000888, 0.000000000000000000, 105.0000000000000142 ) ) ;
#136 = ORIENTED_EDGE ( 'NONE', *, *, #300, .F. ) ;
#137 = EDGE_CURVE ( 'NONE', #181, #179, #305, .T. ) ;
#138 = ORIENTED_EDGE ( 'NONE', *, *, #146, .F. ) ;
#139 = MANIFOLD_SOLID_BREP ( 'Zaoblit1', #182 ) ;
#140 = CIRCLE ( 'NONE', #275, 7.000000000000000000 ) ;
#141 = LINE ( 'NONE', #236, #254 ) ;
#142 = CIRCLE ( 'NONE', #244, 4.500000000000000888 ) ;
#143 = DIRECTION ( 'NONE',  ( 1.000000000000000000, 0.000000000000000000, 0.000000000000000000 ) ) ;
#144 = CARTESIAN_POINT ( 'NONE',  ( 0.000000000000000000, 0.000000000000000000, 5.199999999999996625 ) ) ;
#145 = DIRECTION ( 'NONE',  ( -1.000000000000000000, 0.000000000000000000, 0.000000000000000000 ) ) ;
#146 = EDGE_CURVE ( 'NONE', #274, #179, #55, .T. ) ;
#147 = PLANE ( 'NONE',  #109 ) ;
#148 = DIRECTION ( 'NONE',  ( -0.000000000000000000, -0.000000000000000000, -1.000000000000000000 ) ) ;
#149 = EDGE_CURVE ( 'NONE', #84, #108, #140, .T. ) ;
#150 =( GEOMETRIC_REPRESENTATION_CONTEXT ( 3 ) GLOBAL_UNCERTAINTY_ASSIGNED_CONTEXT ( ( #125 ) ) GLOBAL_UNIT_ASSIGNED_CONTEXT ( ( #80, #124, #4 ) ) REPRESENTATION_CONTEXT ( 'NONE', 'WORKASPACE' ) );
#151 = PERSON_AND_ORGANIZATION ( #82, #270 ) ;
#152 = APPLICATION_PROTOCOL_DEFINITION ( 'international standard', 'config_control_design', 1994, #272 ) ;
#153 = CARTESIAN_POINT ( 'NONE',  ( 0.000000000000000000, 0.000000000000000000, 0.000000000000000000 ) ) ;
#154 = AXIS2_PLACEMENT_3D ( 'NONE', #59, #85, #90 ) ;
#155 = AXIS2_PLACEMENT_3D ( 'NONE', #18, #76, #198 ) ;
#156 = APPROVAL_ROLE ( '' ) ;
#157 = ADVANCED_FACE ( 'NONE', ( #96 ), #188, .T. ) ;
#158 = ORIENTED_EDGE ( 'NONE', *, *, #185, .T. ) ;
#159 = APPLICATION_CONTEXT ( 'configuration controlled 3d designs of mechanical parts and assemblies' ) ;
#160 = DIRECTION ( 'NONE',  ( 1.000000000000000000, 0.000000000000000000, 0.000000000000000000 ) ) ;
#161 = DIRECTION ( 'NONE',  ( 1.000000000000000000, 0.000000000000000000, -0.000000000000000000 ) ) ;
#162 = CYLINDRICAL_SURFACE ( 'NONE', #116, 7.000000000000000000 ) ;
#163 = CARTESIAN_POINT ( 'NONE',  ( 0.000000000000000000, 0.000000000000000000, 0.000000000000000000 ) ) ;
#164 = VERTEX_POINT ( 'NONE', #68 ) ;
#165 = EDGE_CURVE ( 'NONE', #173, #164, #40, .T. ) ;
#166 = CIRCLE ( 'NONE', #155, 4.500000000000000888 ) ;
#167 = CARTESIAN_POINT ( 'NONE',  ( 0.000000000000000000, 0.000000000000000000, 105.0000000000000142 ) ) ;
#168 = FACE_OUTER_BOUND ( 'NONE', #10, .T. ) ;
#169 = ADVANCED_FACE ( 'NONE', ( #168 ), #57, .F. ) ;
#170 = DIRECTION ( 'NONE',  ( 1.000000000000000000, 0.000000000000000000, 0.000000000000000000 ) ) ;
#171 = AXIS2_PLACEMENT_3D ( 'NONE', #110, #115, #235 ) ;
#172 = DIRECTION ( 'NONE',  ( -0.000000000000000000, -0.000000000000000000, -1.000000000000000000 ) ) ;
#173 = VERTEX_POINT ( 'NONE', #282 ) ;
#174 = DIRECTION ( 'NONE',  ( 0.000000000000000000, 0.000000000000000000, 1.000000000000000000 ) ) ;
#175 = PERSON_AND_ORGANIZATION ( #82, #270 ) ;
#176 = EDGE_CURVE ( 'NONE', #26, #8, #46, .T. ) ;
#177 = ORIENTED_EDGE ( 'NONE', *, *, #222, .F. ) ;
#178 = CC_DESIGN_APPROVAL ( #291, ( #206 ) ) ;
#179 = VERTEX_POINT ( 'NONE', #20 ) ;
#180 = EDGE_LOOP ( 'NONE', ( #75, #184, #230, #87 ) ) ;
#181 = VERTEX_POINT ( 'NONE', #307 ) ;
#182 = CLOSED_SHELL ( 'NONE', ( #169, #203, #119, #265, #113, #74, #157, #189, #276 ) ) ;
#183 = CARTESIAN_POINT ( 'NONE',  ( 0.000000000000000000, 0.000000000000000000, 0.000000000000000000 ) ) ;
#184 = ORIENTED_EDGE ( 'NONE', *, *, #176, .F. ) ;
#185 = EDGE_CURVE ( 'NONE', #179, #173, #226, .T. ) ;
#186 = DIRECTION ( 'NONE',  ( 1.000000000000000000, 0.000000000000000000, 0.000000000000000000 ) ) ;
#187 = DIRECTION ( 'NONE',  ( 1.000000000000000000, 0.000000000000000000, 0.000000000000000000 ) ) ;
#188 = CYLINDRICAL_SURFACE ( 'NONE', #263, 4.500000000000000888 ) ;
#189 = ADVANCED_FACE ( 'NONE', ( #118 ), #147, .T. ) ;
#190 = EDGE_CURVE ( 'NONE', #106, #274, #123, .T. ) ;
#191 = DIRECTION ( 'NONE',  ( 1.000000000000000000, 0.000000000000000000, 0.000000000000000000 ) ) ;
#192 = CARTESIAN_POINT ( 'NONE',  ( 0.000000000000000000, 0.000000000000000000, 5.000000000000000000 ) ) ;
#193 = AXIS2_PLACEMENT_3D ( 'NONE', #144, #120, #191 ) ;
#194 = PRODUCT_DEFINITION_FORMATION_WITH_SPECIFIED_SOURCE ( 'LIBOVOLNÝ', '', #304, .NOT_KNOWN. ) ;
#195 = APPROVAL_STATUS ( 'not_yet_approved' ) ;
#196 = CC_DESIGN_PERSON_AND_ORGANIZATION_ASSIGNMENT ( #175, #273, ( #304 ) ) ;
#197 = CALENDAR_DATE ( 2022, 7, 7 ) ;
#198 = DIRECTION ( 'NONE',  ( 1.000000000000000000, 0.000000000000000000, 0.000000000000000000 ) ) ;
#199 = AXIS2_PLACEMENT_3D ( 'NONE', #3, #172, #98 ) ;
#200 = APPROVAL_STATUS ( 'not_yet_approved' ) ;
#201 = EDGE_LOOP ( 'NONE', ( #136, #24, #253, #13 ) ) ;
#202 = EDGE_LOOP ( 'NONE', ( #280, #81 ) ) ;
#203 = ADVANCED_FACE ( 'NONE', ( #262 ), #245, .T. ) ;
#204 = LOCAL_TIME ( 11, 57, 29.00000000000000000, #246 ) ;
#205 = EDGE_LOOP ( 'NONE', ( #133, #267, #129, #107 ) ) ;
#206 = PRODUCT_DEFINITION ( 'NEZNÁMÝ', '', #194, #70 ) ;
#207 = ORIENTED_EDGE ( 'NONE', *, *, #298, .T. ) ;
#208 = DIRECTION ( 'NONE',  ( -0.000000000000000000, -0.000000000000000000, -1.000000000000000000 ) ) ;
#209 = FACE_OUTER_BOUND ( 'NONE', #205, .T. ) ;
#210 = DIRECTION ( 'NONE',  ( -1.000000000000000000, 0.000000000000000000, 0.000000000000000000 ) ) ;
#211 = CARTESIAN_POINT ( 'NONE',  ( 0.000000000000000000, 0.000000000000000000, 0.000000000000000000 ) ) ;
#212 = CARTESIAN_POINT ( 'NONE',  ( 0.000000000000000000, 0.000000000000000000, 5.000000000000000000 ) ) ;
#213 = LOCAL_TIME ( 11, 57, 29.00000000000000000, #128 ) ;
#214 = CARTESIAN_POINT ( 'NONE',  ( -4.500000000000000888, 0.000000000000000000, 105.0000000000000142 ) ) ;
#215 = PRODUCT_RELATED_PRODUCT_CATEGORY ( 'detail', '', ( #304 ) ) ;
#216 = DIRECTION ( 'NONE',  ( -0.000000000000000000, -0.000000000000000000, -1.000000000000000000 ) ) ;
#217 = APPLICATION_PROTOCOL_DEFINITION ( 'international standard', 'config_control_design', 1994, #159 ) ;
#218 = TOROIDAL_SURFACE ( 'NONE', #283, 4.700000000000000178, 0.2000000000000000111 ) ;
#219 = APPROVAL_DATE_TIME ( #22, #2 ) ;
#220 = ORIENTED_EDGE ( 'NONE', *, *, #165, .F. ) ;
#221 = PERSON_AND_ORGANIZATION ( #82, #270 ) ;
#222 = EDGE_CURVE ( 'NONE', #164, #173, #19, .T. ) ;
#223 = DATE_AND_TIME ( #53, #233 ) ;
#224 = EDGE_LOOP ( 'NONE', ( #62, #299 ) ) ;
#225 = VECTOR ( 'NONE', #208, 1000.000000000000000 ) ;
#226 = CIRCLE ( 'NONE', #30, 0.1999999999999996503 ) ;
#227 = CALENDAR_DATE ( 2022, 7, 7 ) ;
#228 = ORIENTED_EDGE ( 'NONE', *, *, #300, .T. ) ;
#229 = APPROVAL_DATE_TIME ( #9, #296 ) ;
#230 = ORIENTED_EDGE ( 'NONE', *, *, #39, .T. ) ;
#231 = PRODUCT_DEFINITION_SHAPE ( 'NONE', 'NONE',  #206 ) ;
#232 = FACE_BOUND ( 'NONE', #224, .T. ) ;
#233 = LOCAL_TIME ( 11, 57, 29.00000000000000000, #100 ) ;
#234 = LINE ( 'NONE', #114, #225 ) ;
#235 = DIRECTION ( 'NONE',  ( 1.000000000000000000, 0.000000000000000000, -0.000000000000000000 ) ) ;
#236 = CARTESIAN_POINT ( 'NONE',  ( 7.000000000000000000, 8.572527594031473190E-16, 5.000000000000000000 ) ) ;
#237 = EDGE_CURVE ( 'NONE', #8, #26, #78, .T. ) ;
#238 = AXIS2_PLACEMENT_3D ( 'NONE', #306, #260, #1 ) ;
#239 = DIRECTION ( 'NONE',  ( -0.000000000000000000, -0.000000000000000000, -1.000000000000000000 ) ) ;
#240 = DIRECTION ( 'NONE',  ( 0.000000000000000000, 0.000000000000000000, 1.000000000000000000 ) ) ;
#241 = CARTESIAN_POINT ( 'NONE',  ( 4.700000000000000178, 0.000000000000000000, 5.199999999999996625 ) ) ;
#242 = CC_DESIGN_DATE_AND_TIME_ASSIGNMENT ( #83, #54, ( #206 ) ) ;
#243 = DIRECTION ( 'NONE',  ( -0.000000000000000000, -0.000000000000000000, -1.000000000000000000 ) ) ;
#244 = AXIS2_PLACEMENT_3D ( 'NONE', #167, #43, #143 ) ;
#245 = CYLINDRICAL_SURFACE ( 'NONE', #103, 4.500000000000000888 ) ;
#246 = COORDINATED_UNIVERSAL_TIME_OFFSET ( 1, 0, .AHEAD. ) ;
#247 = SECURITY_CLASSIFICATION_LEVEL ( 'unclassified' ) ;
#248 = APPROVAL_PERSON_ORGANIZATION ( #221, #2, #126 ) ;
#249 = APPROVAL_STATUS ( 'not_yet_approved' ) ;
#250 = PERSON_AND_ORGANIZATION ( #82, #270 ) ;
#251 = SHAPE_DEFINITION_REPRESENTATION ( #231, #112 ) ;
#252 = PLANE ( 'NONE',  #34 ) ;
#253 = ORIENTED_EDGE ( 'NONE', *, *, #52, .T. ) ;
#254 = VECTOR ( 'NONE', #239, 1000.000000000000000 ) ;
#255 = LOCAL_TIME ( 11, 57, 29.00000000000000000, #51 ) ;
#256 = CARTESIAN_POINT ( 'NONE',  ( 0.000000000000000000, 0.000000000000000000, 5.000000000000000000 ) ) ;
#257 = CARTESIAN_POINT ( 'NONE',  ( -7.000000000000000000, 0.000000000000000000, 0.000000000000000000 ) ) ;
#258 = DIRECTION ( 'NONE',  ( 0.000000000000000000, 0.000000000000000000, 1.000000000000000000 ) ) ;
#259 = CARTESIAN_POINT ( 'NONE',  ( -4.500000000000000888, 0.000000000000000000, 5.199999999999996625 ) ) ;
#260 = DIRECTION ( 'NONE',  ( 0.000000000000000000, 0.000000000000000000, 1.000000000000000000 ) ) ;
#261 = DIRECTION ( 'NONE',  ( -0.000000000000000000, -0.000000000000000000, -1.000000000000000000 ) ) ;
#262 = FACE_OUTER_BOUND ( 'NONE', #201, .T. ) ;
#263 = AXIS2_PLACEMENT_3D ( 'NONE', #17, #261, #145 ) ;
#264 = FACE_OUTER_BOUND ( 'NONE', #180, .T. ) ;
#265 = ADVANCED_FACE ( 'NONE', ( #264 ), #16, .T. ) ;
#266 = PERSON_AND_ORGANIZATION_ROLE ( 'creator' ) ;
#267 = ORIENTED_EDGE ( 'NONE', *, *, #79, .T. ) ;
#268 = DIRECTION ( 'NONE',  ( 1.000000000000000000, 0.000000000000000000, 0.000000000000000000 ) ) ;
#269 = CIRCLE ( 'NONE', #154, 0.1999999999999996503 ) ;
#270 = ORGANIZATION ( 'NEURÈENÝ', 'NEURÈENÝ', '' ) ;
#271 = APPROVAL_ROLE ( '' ) ;
#272 = APPLICATION_CONTEXT ( 'configuration controlled 3d designs of mechanical parts and assemblies' ) ;
#273 = PERSON_AND_ORGANIZATION_ROLE ( 'design_owner' ) ;
#274 = VERTEX_POINT ( 'NONE', #259 ) ;
#275 = AXIS2_PLACEMENT_3D ( 'NONE', #211, #286, #93 ) ;
#276 = ADVANCED_FACE ( 'NONE', ( #65 ), #218, .F. ) ;
#277 = CARTESIAN_POINT ( 'NONE',  ( -7.000000000000000000, 0.000000000000000000, 5.000000000000000000 ) ) ;
#278 = ORIENTED_EDGE ( 'NONE', *, *, #149, .F. ) ;
#279 = ORIENTED_EDGE ( 'NONE', *, *, #146, .T. ) ;
#280 = ORIENTED_EDGE ( 'NONE', *, *, #176, .T. ) ;
#281 = CARTESIAN_POINT ( 'NONE',  ( 4.500000000000000888, 5.510910596163089556E-16, 105.0000000000000142 ) ) ;
#282 = CARTESIAN_POINT ( 'NONE',  ( 4.700000000000000178, 0.000000000000000000, 4.999999999999998224 ) ) ;
#283 = AXIS2_PLACEMENT_3D ( 'NONE', #42, #94, #187 ) ;
#284 = CARTESIAN_POINT ( 'NONE',  ( 0.000000000000000000, 0.000000000000000000, 5.199999999999996625 ) ) ;
#285 = DIRECTION ( 'NONE',  ( 0.000000000000000000, -1.000000000000000000, 0.000000000000000000 ) ) ;
#286 = DIRECTION ( 'NONE',  ( 0.000000000000000000, 0.000000000000000000, 1.000000000000000000 ) ) ;
#287 = DIRECTION ( 'NONE',  ( 0.000000000000000000, 0.000000000000000000, 1.000000000000000000 ) ) ;
#288 = CALENDAR_DATE ( 2022, 7, 7 ) ;
#289 = EDGE_LOOP ( 'NONE', ( #207, #228 ) ) ;
#290 = DATE_AND_TIME ( #197, #213 ) ;
#291 = APPROVAL ( #200, 'NEURÈENÝ' ) ;
#292 = AXIS2_PLACEMENT_3D ( 'NONE', #212, #243, #170 ) ;
#293 = EDGE_LOOP ( 'NONE', ( #56, #7, #158, #177 ) ) ;
#294 = EDGE_LOOP ( 'NONE', ( #92, #278 ) ) ;
#295 = CIRCLE ( 'NONE', #91, 4.500000000000000888 ) ;
#296 = APPROVAL ( #249, 'NEURÈENÝ' ) ;
#297 = CARTESIAN_POINT ( 'NONE',  ( 0.000000000000000000, 0.000000000000000000, 5.199999999999996625 ) ) ;
#298 = EDGE_CURVE ( 'NONE', #106, #181, #142, .T. ) ;
#299 = ORIENTED_EDGE ( 'NONE', *, *, #222, .T. ) ;
#300 = EDGE_CURVE ( 'NONE', #181, #106, #166, .T. ) ;
#301 = DIRECTION ( 'NONE',  ( -1.000000000000000000, 0.000000000000000000, 0.000000000000000000 ) ) ;
#302 = AXIS2_PLACEMENT_3D ( 'NONE', #163, #60, #134 ) ;
#303 = APPROVAL_PERSON_ORGANIZATION ( #250, #291, #271 ) ;
#304 = PRODUCT ( '9398', '9398', '', ( #77 ) ) ;
#305 = LINE ( 'NONE', #281, #29 ) ;
#306 = CARTESIAN_POINT ( 'NONE',  ( 0.000000000000000000, 0.000000000000000000, 5.000000000000000000 ) ) ;
#307 = CARTESIAN_POINT ( 'NONE',  ( 4.500000000000000888, 5.510910596163089556E-16, 105.0000000000000142 ) ) ;
ENDSEC;
END-ISO-10303-21;
