ISO-10303-21;
HEADER;
FILE_DESCRIPTION (( 'STEP AP203' ),
    '1' );
FILE_NAME ('a61e.STEP',
    '2022-07-07T10:21:17',
    ( '' ),
    ( '' ),
    'SwSTEP 2.0',
    'SolidWorks 2019',
    '' );
FILE_SCHEMA (( 'CONFIG_CONTROL_DESIGN' ));
ENDSEC;

DATA;
#1 = ORIENTED_EDGE ( 'NONE', *, *, #240, .T. ) ;
#2 = DIRECTION ( 'NONE',  ( -1.000000000000000000, 0.000000000000000000, 0.000000000000000000 ) ) ;
#3 = AXIS2_PLACEMENT_3D ( 'NONE', #42, #143, #70 ) ;
#4 = CARTESIAN_POINT ( 'NONE',  ( 0.000000000000000000, 0.000000000000000000, 503.0000000000000000 ) ) ;
#5 = FACE_OUTER_BOUND ( 'NONE', #23, .T. ) ;
#6 = CIRCLE ( 'NONE', #270, 2.250000000000000000 ) ;
#7 = PLANE ( 'NONE',  #271 ) ;
#8 = DIRECTION ( 'NONE',  ( -0.000000000000000000, -0.000000000000000000, -1.000000000000000000 ) ) ;
#9 = FACE_OUTER_BOUND ( 'NONE', #16, .T. ) ;
#10 = APPROVAL ( #237, 'NEURÈENÝ' ) ;
#11 = AXIS2_PLACEMENT_3D ( 'NONE', #33, #251, #272 ) ;
#12 = COORDINATED_UNIVERSAL_TIME_OFFSET ( 1, 0, .AHEAD. ) ;
#13 = COORDINATED_UNIVERSAL_TIME_OFFSET ( 1, 0, .AHEAD. ) ;
#14 = VERTEX_POINT ( 'NONE', #284 ) ;
#15 = DATE_AND_TIME ( #36, #287 ) ;
#16 = EDGE_LOOP ( 'NONE', ( #157, #68 ) ) ;
#17 = PERSON_AND_ORGANIZATION_ROLE ( 'classification_officer' ) ;
#18 = VERTEX_POINT ( 'NONE', #197 ) ;
#19 = LOCAL_TIME ( 12, 21, 17.00000000000000000, #281 ) ;
#20 = DIRECTION ( 'NONE',  ( 0.000000000000000000, 0.000000000000000000, 1.000000000000000000 ) ) ;
#21 = CARTESIAN_POINT ( 'NONE',  ( 0.000000000000000000, 0.000000000000000000, 3.000000000000000000 ) ) ;
#22 = ORIENTED_EDGE ( 'NONE', *, *, #250, .T. ) ;
#23 = EDGE_LOOP ( 'NONE', ( #282, #145, #217, #1 ) ) ;
#24 = CARTESIAN_POINT ( 'NONE',  ( 0.000000000000000000, 0.000000000000000000, 3.199999999999980638 ) ) ;
#25 = DIRECTION ( 'NONE',  ( -0.000000000000000000, -0.000000000000000000, -1.000000000000000000 ) ) ;
#26 = AXIS2_PLACEMENT_3D ( 'NONE', #195, #20, #242 ) ;
#27 = DESIGN_CONTEXT ( 'detailed design', #78, 'design' ) ;
#28 = DIRECTION ( 'NONE',  ( -0.000000000000000000, -0.000000000000000000, -1.000000000000000000 ) ) ;
#29 = ORGANIZATION ( 'NEURÈENÝ', 'NEURÈENÝ', '' ) ;
#30 = CARTESIAN_POINT ( 'NONE',  ( 4.000000000000000000, 4.898587196589412829E-16, 3.000000000000000000 ) ) ;
#31 = PRODUCT_RELATED_PRODUCT_CATEGORY ( 'detail', '', ( #297 ) ) ;
#32 = MANIFOLD_SOLID_BREP ( 'Zaoblit1', #134 ) ;
#33 = CARTESIAN_POINT ( 'NONE',  ( 0.000000000000000000, 0.000000000000000000, 3.199999999999980638 ) ) ;
#34 = CYLINDRICAL_SURFACE ( 'NONE', #35, 4.000000000000000000 ) ;
#35 = AXIS2_PLACEMENT_3D ( 'NONE', #246, #25, #107 ) ;
#36 = CALENDAR_DATE ( 2022, 7, 7 ) ;
#37 = DATE_AND_TIME ( #153, #69 ) ;
#38 = PERSON_AND_ORGANIZATION ( #40, #29 ) ;
#39 = ORIENTED_EDGE ( 'NONE', *, *, #177, .F. ) ;
#40 = PERSON ( 'NEURÈENÝ', 'NEURÈENÝ', 'NEURÈENÝ', ('NEURÈENÝ'), ('NEURÈENÝ'), ('NEURÈENÝ') ) ;
#41 = TOROIDAL_SURFACE ( 'NONE', #205, 2.449999999999999734, 0.2000000000000000111 ) ;
#42 = CARTESIAN_POINT ( 'NONE',  ( 0.000000000000000000, 0.000000000000000000, 3.000000000000000000 ) ) ;
#43 = EDGE_CURVE ( 'NONE', #49, #189, #138, .T. ) ;
#44 = VERTEX_POINT ( 'NONE', #170 ) ;
#45 = CARTESIAN_POINT ( 'NONE',  ( 0.000000000000000000, 0.000000000000000000, 3.199999999999980638 ) ) ;
#46 = ORIENTED_EDGE ( 'NONE', *, *, #95, .T. ) ;
#47 = CC_DESIGN_DATE_AND_TIME_ASSIGNMENT ( #15, #182, ( #259 ) ) ;
#48 = ADVANCED_FACE ( 'NONE', ( #261, #123 ), #223, .T. ) ;
#49 = VERTEX_POINT ( 'NONE', #305 ) ;
#50 = FACE_OUTER_BOUND ( 'NONE', #59, .T. ) ;
#51 = CARTESIAN_POINT ( 'NONE',  ( -2.449999999999999734, 3.000384657911015370E-16, 2.999999999999990674 ) ) ;
#52 = ADVANCED_FACE ( 'NONE', ( #166 ), #244, .T. ) ;
#53 = LINE ( 'NONE', #149, #80 ) ;
#54 = CIRCLE ( 'NONE', #300, 4.000000000000000000 ) ;
#55 = DIRECTION ( 'NONE',  ( 1.000000000000000000, 0.000000000000000000, -0.000000000000000000 ) ) ;
#56 = CARTESIAN_POINT ( 'NONE',  ( -4.000000000000000000, 0.000000000000000000, 0.000000000000000000 ) ) ;
#57 = AXIS2_PLACEMENT_3D ( 'NONE', #108, #8, #273 ) ;
#58 = PERSON_AND_ORGANIZATION_ROLE ( 'creator' ) ;
#59 = EDGE_LOOP ( 'NONE', ( #22, #185 ) ) ;
#60 = DATE_AND_TIME ( #65, #19 ) ;
#61 = EDGE_LOOP ( 'NONE', ( #285, #191, #216, #160 ) ) ;
#62 = CIRCLE ( 'NONE', #243, 2.250000000000000000 ) ;
#63 = APPLICATION_CONTEXT ( 'configuration controlled 3d designs of mechanical parts and assemblies' ) ;
#64 = CC_DESIGN_PERSON_AND_ORGANIZATION_ASSIGNMENT ( #299, #279, ( #297 ) ) ;
#65 = CALENDAR_DATE ( 2022, 7, 7 ) ;
#66 = ORIENTED_EDGE ( 'NONE', *, *, #104, .T. ) ;
#67 = CARTESIAN_POINT ( 'NONE',  ( 0.000000000000000000, 0.000000000000000000, 0.000000000000000000 ) ) ;
#68 = ORIENTED_EDGE ( 'NONE', *, *, #43, .F. ) ;
#69 = LOCAL_TIME ( 12, 21, 17.00000000000000000, #255 ) ;
#70 = DIRECTION ( 'NONE',  ( 1.000000000000000000, 0.000000000000000000, -0.000000000000000000 ) ) ;
#71 = ORIENTED_EDGE ( 'NONE', *, *, #159, .T. ) ;
#72 = ORIENTED_EDGE ( 'NONE', *, *, #142, .F. ) ;
#73 = CARTESIAN_POINT ( 'NONE',  ( 0.000000000000000000, 0.000000000000000000, 503.0000000000000000 ) ) ;
#74 = AXIS2_PLACEMENT_3D ( 'NONE', #256, #302, #113 ) ;
#75 = DIRECTION ( 'NONE',  ( -0.000000000000000000, -0.000000000000000000, -1.000000000000000000 ) ) ;
#76 = AXIS2_PLACEMENT_3D ( 'NONE', #67, #220, #120 ) ;
#77 = CARTESIAN_POINT ( 'NONE',  ( -2.250000000000000000, 0.000000000000000000, 503.0000000000000000 ) ) ;
#78 = APPLICATION_CONTEXT ( 'configuration controlled 3d designs of mechanical parts and assemblies' ) ;
#79 = DIRECTION ( 'NONE',  ( 0.000000000000000000, 0.000000000000000000, 1.000000000000000000 ) ) ;
#80 = VECTOR ( 'NONE', #248, 1000.000000000000000 ) ;
#81 = DIRECTION ( 'NONE',  ( 0.000000000000000000, 0.000000000000000000, 1.000000000000000000 ) ) ;
#82 = SECURITY_CLASSIFICATION_LEVEL ( 'unclassified' ) ;
#83 = CIRCLE ( 'NONE', #121, 4.000000000000000000 ) ;
#84 =( LENGTH_UNIT ( ) NAMED_UNIT ( * ) SI_UNIT ( .MILLI., .METRE. ) );
#85 = ADVANCED_FACE ( 'NONE', ( #289 ), #41, .F. ) ;
#86 = DATE_AND_TIME ( #213, #192 ) ;
#87 = ORIENTED_EDGE ( 'NONE', *, *, #288, .F. ) ;
#88 = AXIS2_PLACEMENT_3D ( 'NONE', #21, #94, #199 ) ;
#89 = ORIENTED_EDGE ( 'NONE', *, *, #92, .F. ) ;
#90 = CIRCLE ( 'NONE', #11, 2.250000000000000000 ) ;
#91 = CC_DESIGN_PERSON_AND_ORGANIZATION_ASSIGNMENT ( #110, #129, ( #154 ) ) ;
#92 = EDGE_CURVE ( 'NONE', #290, #44, #262, .T. ) ;
#93 = DIRECTION ( 'NONE',  ( -0.000000000000000000, -0.000000000000000000, -1.000000000000000000 ) ) ;
#94 = DIRECTION ( 'NONE',  ( -0.000000000000000000, -0.000000000000000000, -1.000000000000000000 ) ) ;
#95 = EDGE_CURVE ( 'NONE', #18, #303, #83, .T. ) ;
#96 = DIRECTION ( 'NONE',  ( 0.000000000000000000, 0.000000000000000000, 1.000000000000000000 ) ) ;
#97 = EDGE_CURVE ( 'NONE', #124, #44, #62, .T. ) ;
#98 = CC_DESIGN_APPROVAL ( #10, ( #154 ) ) ;
#99 = ORIENTED_EDGE ( 'NONE', *, *, #198, .F. ) ;
#100 = APPROVAL_DATE_TIME ( #165, #146 ) ;
#101 = DIRECTION ( 'NONE',  ( 1.000000000000000000, 0.000000000000000000, 0.000000000000000000 ) ) ;
#102 = FACE_OUTER_BOUND ( 'NONE', #132, .T. ) ;
#103 = CARTESIAN_POINT ( 'NONE',  ( 0.000000000000000000, 0.000000000000000000, 0.000000000000000000 ) ) ;
#104 = EDGE_CURVE ( 'NONE', #189, #49, #200, .T. ) ;
#105 = AXIS2_PLACEMENT_3D ( 'NONE', #73, #294, #55 ) ;
#106 = LINE ( 'NONE', #203, #236 ) ;
#107 = DIRECTION ( 'NONE',  ( -1.000000000000000000, 0.000000000000000000, 0.000000000000000000 ) ) ;
#108 = CARTESIAN_POINT ( 'NONE',  ( 0.000000000000000000, 0.000000000000000000, 503.0000000000000000 ) ) ;
#109 = AXIS2_PLACEMENT_3D ( 'NONE', #127, #227, #229 ) ;
#110 = PERSON_AND_ORGANIZATION ( #40, #29 ) ;
#111 = APPROVAL_DATE_TIME ( #60, #10 ) ;
#112 = EDGE_LOOP ( 'NONE', ( #99, #286, #193, #66 ) ) ;
#113 = DIRECTION ( 'NONE',  ( 1.000000000000000000, 0.000000000000000000, 0.000000000000000000 ) ) ;
#114 = APPROVAL_PERSON_ORGANIZATION ( #137, #10, #133 ) ;
#115 =( NAMED_UNIT ( * ) PLANE_ANGLE_UNIT ( ) SI_UNIT ( $, .RADIAN. ) );
#116 = ORIENTED_EDGE ( 'NONE', *, *, #177, .T. ) ;
#117 = EDGE_LOOP ( 'NONE', ( #46, #116 ) ) ;
#118 = TOROIDAL_SURFACE ( 'NONE', #263, 2.449999999999999734, 0.2000000000000000111 ) ;
#119 = CARTESIAN_POINT ( 'NONE',  ( 2.250000000000000000, 2.755455298081544285E-16, 3.199999999999980638 ) ) ;
#120 = DIRECTION ( 'NONE',  ( 1.000000000000000000, 0.000000000000000000, 0.000000000000000000 ) ) ;
#121 = AXIS2_PLACEMENT_3D ( 'NONE', #139, #238, #101 ) ;
#122 = ORIENTED_EDGE ( 'NONE', *, *, #43, .T. ) ;
#123 = FACE_OUTER_BOUND ( 'NONE', #117, .T. ) ;
#124 = VERTEX_POINT ( 'NONE', #119 ) ;
#125 = DIRECTION ( 'NONE',  ( 1.224646799147353207E-16, 1.000000000000000000, -0.000000000000000000 ) ) ;
#126 = DIRECTION ( 'NONE',  ( -1.000000000000000000, 0.000000000000000000, 0.000000000000000000 ) ) ;
#127 = CARTESIAN_POINT ( 'NONE',  ( 0.000000000000000000, 0.000000000000000000, 503.0000000000000000 ) ) ;
#128 = CARTESIAN_POINT ( 'NONE',  ( -2.449999999999999734, 3.000384657911015370E-16, 3.199999999999980638 ) ) ;
#129 = PERSON_AND_ORGANIZATION_ROLE ( 'design_supplier' ) ;
#130 =( GEOMETRIC_REPRESENTATION_CONTEXT ( 3 ) GLOBAL_UNCERTAINTY_ASSIGNED_CONTEXT ( ( #267 ) ) GLOBAL_UNIT_ASSIGNED_CONTEXT ( ( #84, #115, #190 ) ) REPRESENTATION_CONTEXT ( 'NONE', 'WORKASPACE' ) );
#131 = APPROVAL_STATUS ( 'not_yet_approved' ) ;
#132 = EDGE_LOOP ( 'NONE', ( #156, #268, #186, #89 ) ) ;
#133 = APPROVAL_ROLE ( '' ) ;
#134 = CLOSED_SHELL ( 'NONE', ( #85, #168, #252, #52, #48, #174, #292, #183, #231 ) ) ;
#135 = ORIENTED_EDGE ( 'NONE', *, *, #142, .T. ) ;
#136 = EDGE_LOOP ( 'NONE', ( #87, #307, #233, #72 ) ) ;
#137 = PERSON_AND_ORGANIZATION ( #40, #29 ) ;
#138 = CIRCLE ( 'NONE', #76, 4.000000000000000000 ) ;
#139 = CARTESIAN_POINT ( 'NONE',  ( 0.000000000000000000, 0.000000000000000000, 3.000000000000000000 ) ) ;
#140 = AXIS2_PLACEMENT_3D ( 'NONE', #152, #295, #276 ) ;
#141 = CARTESIAN_POINT ( 'NONE',  ( 0.000000000000000000, 0.000000000000000000, 3.000000000000000000 ) ) ;
#142 = EDGE_CURVE ( 'NONE', #222, #162, #158, .T. ) ;
#143 = DIRECTION ( 'NONE',  ( 0.000000000000000000, 0.000000000000000000, 1.000000000000000000 ) ) ;
#144 = CC_DESIGN_DATE_AND_TIME_ASSIGNMENT ( #37, #188, ( #278 ) ) ;
#145 = ORIENTED_EDGE ( 'NONE', *, *, #250, .F. ) ;
#146 = APPROVAL ( #131, 'NEURÈENÝ' ) ;
#147 = DIRECTION ( 'NONE',  ( 1.000000000000000000, 0.000000000000000000, 0.000000000000000000 ) ) ;
#148 = DIRECTION ( 'NONE',  ( 1.000000000000000000, 0.000000000000000000, 0.000000000000000000 ) ) ;
#149 = CARTESIAN_POINT ( 'NONE',  ( -4.000000000000000000, 0.000000000000000000, 3.000000000000000000 ) ) ;
#150 = LOCAL_TIME ( 12, 21, 17.00000000000000000, #13 ) ;
#151 = FACE_OUTER_BOUND ( 'NONE', #258, .T. ) ;
#152 = CARTESIAN_POINT ( 'NONE',  ( 2.449999999999999734, 0.000000000000000000, 3.199999999999980638 ) ) ;
#153 = CALENDAR_DATE ( 2022, 7, 7 ) ;
#154 = PRODUCT_DEFINITION_FORMATION_WITH_SPECIFIED_SOURCE ( 'LIBOVOLNÝ', '', #297, .NOT_KNOWN. ) ;
#155 = PERSON_AND_ORGANIZATION ( #40, #29 ) ;
#156 = ORIENTED_EDGE ( 'NONE', *, *, #304, .F. ) ;
#157 = ORIENTED_EDGE ( 'NONE', *, *, #104, .F. ) ;
#158 = CIRCLE ( 'NONE', #88, 2.449999999999999734 ) ;
#159 = EDGE_CURVE ( 'NONE', #162, #222, #181, .T. ) ;
#160 = ORIENTED_EDGE ( 'NONE', *, *, #235, .F. ) ;
#161 = APPROVAL_ROLE ( '' ) ;
#162 = VERTEX_POINT ( 'NONE', #277 ) ;
#163 = APPROVAL ( #215, 'NEURÈENÝ' ) ;
#164 = EDGE_LOOP ( 'NONE', ( #71, #135 ) ) ;
#165 = DATE_AND_TIME ( #212, #150 ) ;
#166 = FACE_OUTER_BOUND ( 'NONE', #112, .T. ) ;
#167 = CARTESIAN_POINT ( 'NONE',  ( 0.000000000000000000, 0.000000000000000000, 3.000000000000000000 ) ) ;
#168 = ADVANCED_FACE ( 'NONE', ( #102 ), #291, .T. ) ;
#169 = SHAPE_DEFINITION_REPRESENTATION ( #187, #228 ) ;
#170 = CARTESIAN_POINT ( 'NONE',  ( -2.250000000000000000, 0.000000000000000000, 3.199999999999980638 ) ) ;
#171 = ORIENTED_EDGE ( 'NONE', *, *, #301, .F. ) ;
#172 = CC_DESIGN_APPROVAL ( #163, ( #278 ) ) ;
#173 = DIRECTION ( 'NONE',  ( -0.000000000000000000, -0.000000000000000000, -1.000000000000000000 ) ) ;
#174 = ADVANCED_FACE ( 'NONE', ( #9 ), #7, .F. ) ;
#175 = VECTOR ( 'NONE', #93, 1000.000000000000000 ) ;
#176 = CYLINDRICAL_SURFACE ( 'NONE', #179, 2.250000000000000000 ) ;
#177 = EDGE_CURVE ( 'NONE', #303, #18, #54, .T. ) ;
#178 = CARTESIAN_POINT ( 'NONE',  ( 2.250000000000000000, 2.755455298081544285E-16, 503.0000000000000000 ) ) ;
#179 = AXIS2_PLACEMENT_3D ( 'NONE', #249, #28, #126 ) ;
#180 = PLANE ( 'NONE',  #105 ) ;
#181 = CIRCLE ( 'NONE', #266, 2.449999999999999734 ) ;
#182 = DATE_TIME_ROLE ( 'classification_date' ) ;
#183 = ADVANCED_FACE ( 'NONE', ( #50 ), #180, .T. ) ;
#184 = COORDINATED_UNIVERSAL_TIME_OFFSET ( 1, 0, .AHEAD. ) ;
#185 = ORIENTED_EDGE ( 'NONE', *, *, #304, .T. ) ;
#186 = ORIENTED_EDGE ( 'NONE', *, *, #97, .T. ) ;
#187 = PRODUCT_DEFINITION_SHAPE ( 'NONE', 'NONE',  #278 ) ;
#188 = DATE_TIME_ROLE ( 'creation_date' ) ;
#189 = VERTEX_POINT ( 'NONE', #56 ) ;
#190 =( NAMED_UNIT ( * ) SI_UNIT ( $, .STERADIAN. ) SOLID_ANGLE_UNIT ( ) );
#191 = ORIENTED_EDGE ( 'NONE', *, *, #288, .T. ) ;
#192 = LOCAL_TIME ( 12, 21, 17.00000000000000000, #184 ) ;
#193 = ORIENTED_EDGE ( 'NONE', *, *, #301, .T. ) ;
#194 = DIRECTION ( 'NONE',  ( -0.000000000000000000, -0.000000000000000000, -1.000000000000000000 ) ) ;
#195 = CARTESIAN_POINT ( 'NONE',  ( 0.000000000000000000, 0.000000000000000000, 0.000000000000000000 ) ) ;
#196 = APPROVAL_PERSON_ORGANIZATION ( #155, #163, #161 ) ;
#197 = CARTESIAN_POINT ( 'NONE',  ( -4.000000000000000000, 0.000000000000000000, 3.000000000000000000 ) ) ;
#198 = EDGE_CURVE ( 'NONE', #303, #49, #106, .T. ) ;
#199 = DIRECTION ( 'NONE',  ( 1.000000000000000000, 0.000000000000000000, 0.000000000000000000 ) ) ;
#200 = CIRCLE ( 'NONE', #26, 4.000000000000000000 ) ;
#201 = CARTESIAN_POINT ( 'NONE',  ( 0.000000000000000000, 0.000000000000000000, 3.000000000000000000 ) ) ;
#202 = CC_DESIGN_APPROVAL ( #146, ( #259 ) ) ;
#203 = CARTESIAN_POINT ( 'NONE',  ( 4.000000000000000000, 4.898587196589412829E-16, 3.000000000000000000 ) ) ;
#204 = DIRECTION ( 'NONE',  ( 1.000000000000000000, 0.000000000000000000, 0.000000000000000000 ) ) ;
#205 = AXIS2_PLACEMENT_3D ( 'NONE', #24, #264, #306 ) ;
#206 = CARTESIAN_POINT ( 'NONE',  ( 0.000000000000000000, 0.000000000000000000, 3.199999999999980638 ) ) ;
#207 = CC_DESIGN_PERSON_AND_ORGANIZATION_ASSIGNMENT ( #280, #58, ( #278 ) ) ;
#208 = DIRECTION ( 'NONE',  ( 0.000000000000000000, 0.000000000000000000, 1.000000000000000000 ) ) ;
#209 = CIRCLE ( 'NONE', #140, 0.2000000000000000944 ) ;
#210 = CC_DESIGN_PERSON_AND_ORGANIZATION_ASSIGNMENT ( #230, #17, ( #259 ) ) ;
#211 = EDGE_CURVE ( 'NONE', #14, #124, #226, .T. ) ;
#212 = CALENDAR_DATE ( 2022, 7, 7 ) ;
#213 = CALENDAR_DATE ( 2022, 7, 7 ) ;
#214 = AXIS2_PLACEMENT_3D ( 'NONE', #128, #125, #225 ) ;
#215 = APPROVAL_STATUS ( 'not_yet_approved' ) ;
#216 = ORIENTED_EDGE ( 'NONE', *, *, #159, .F. ) ;
#217 = ORIENTED_EDGE ( 'NONE', *, *, #92, .T. ) ;
#218 = CIRCLE ( 'NONE', #214, 0.2000000000000000944 ) ;
#219 = ORIENTED_EDGE ( 'NONE', *, *, #198, .T. ) ;
#220 = DIRECTION ( 'NONE',  ( 0.000000000000000000, 0.000000000000000000, 1.000000000000000000 ) ) ;
#221 = AXIS2_PLACEMENT_3D ( 'NONE', #167, #245, #2 ) ;
#222 = VERTEX_POINT ( 'NONE', #51 ) ;
#223 = PLANE ( 'NONE',  #3 ) ;
#224 = DIRECTION ( 'NONE',  ( 1.000000000000000000, 0.000000000000000000, 0.000000000000000000 ) ) ;
#225 = DIRECTION ( 'NONE',  ( -1.000000000000000000, 1.224646799147353207E-16, 0.000000000000000000 ) ) ;
#226 = LINE ( 'NONE', #178, #254 ) ;
#227 = DIRECTION ( 'NONE',  ( 0.000000000000000000, 0.000000000000000000, 1.000000000000000000 ) ) ;
#228 = ADVANCED_BREP_SHAPE_REPRESENTATION ( 'a61e', ( #32, #74 ), #130 ) ;
#229 = DIRECTION ( 'NONE',  ( 1.000000000000000000, 0.000000000000000000, 0.000000000000000000 ) ) ;
#230 = PERSON_AND_ORGANIZATION ( #40, #29 ) ;
#231 = ADVANCED_FACE ( 'NONE', ( #247 ), #118, .F. ) ;
#232 = APPROVAL_ROLE ( '' ) ;
#233 = ORIENTED_EDGE ( 'NONE', *, *, #235, .T. ) ;
#234 = APPROVAL_DATE_TIME ( #86, #163 ) ;
#235 = EDGE_CURVE ( 'NONE', #124, #162, #209, .T. ) ;
#236 = VECTOR ( 'NONE', #173, 1000.000000000000000 ) ;
#237 = APPROVAL_STATUS ( 'not_yet_approved' ) ;
#238 = DIRECTION ( 'NONE',  ( 0.000000000000000000, 0.000000000000000000, 1.000000000000000000 ) ) ;
#239 = CC_DESIGN_SECURITY_CLASSIFICATION ( #259, ( #154 ) ) ;
#240 = EDGE_CURVE ( 'NONE', #44, #124, #90, .T. ) ;
#241 = CARTESIAN_POINT ( 'NONE',  ( -2.250000000000000000, 0.000000000000000000, 503.0000000000000000 ) ) ;
#242 = DIRECTION ( 'NONE',  ( 1.000000000000000000, 0.000000000000000000, 0.000000000000000000 ) ) ;
#243 = AXIS2_PLACEMENT_3D ( 'NONE', #45, #96, #265 ) ;
#244 = CYLINDRICAL_SURFACE ( 'NONE', #221, 4.000000000000000000 ) ;
#245 = DIRECTION ( 'NONE',  ( -0.000000000000000000, -0.000000000000000000, -1.000000000000000000 ) ) ;
#246 = CARTESIAN_POINT ( 'NONE',  ( 0.000000000000000000, 0.000000000000000000, 3.000000000000000000 ) ) ;
#247 = FACE_OUTER_BOUND ( 'NONE', #136, .T. ) ;
#248 = DIRECTION ( 'NONE',  ( -0.000000000000000000, -0.000000000000000000, -1.000000000000000000 ) ) ;
#249 = CARTESIAN_POINT ( 'NONE',  ( 0.000000000000000000, 0.000000000000000000, 503.0000000000000000 ) ) ;
#250 = EDGE_CURVE ( 'NONE', #290, #14, #6, .T. ) ;
#251 = DIRECTION ( 'NONE',  ( 0.000000000000000000, 0.000000000000000000, 1.000000000000000000 ) ) ;
#252 = ADVANCED_FACE ( 'NONE', ( #151 ), #34, .T. ) ;
#253 = PERSON_AND_ORGANIZATION ( #40, #29 ) ;
#254 = VECTOR ( 'NONE', #75, 1000.000000000000000 ) ;
#255 = COORDINATED_UNIVERSAL_TIME_OFFSET ( 1, 0, .AHEAD. ) ;
#256 = CARTESIAN_POINT ( 'NONE',  ( 0.000000000000000000, 0.000000000000000000, 0.000000000000000000 ) ) ;
#257 = APPLICATION_PROTOCOL_DEFINITION ( 'international standard', 'config_control_design', 1994, #78 ) ;
#258 = EDGE_LOOP ( 'NONE', ( #39, #219, #122, #171 ) ) ;
#259 = SECURITY_CLASSIFICATION ( '', '', #82 ) ;
#260 = PERSON_AND_ORGANIZATION_ROLE ( 'creator' ) ;
#261 = FACE_BOUND ( 'NONE', #164, .T. ) ;
#262 = LINE ( 'NONE', #241, #175 ) ;
#263 = AXIS2_PLACEMENT_3D ( 'NONE', #206, #79, #224 ) ;
#264 = DIRECTION ( 'NONE',  ( 0.000000000000000000, 0.000000000000000000, 1.000000000000000000 ) ) ;
#265 = DIRECTION ( 'NONE',  ( 1.000000000000000000, 0.000000000000000000, 0.000000000000000000 ) ) ;
#266 = AXIS2_PLACEMENT_3D ( 'NONE', #141, #194, #147 ) ;
#267 = UNCERTAINTY_MEASURE_WITH_UNIT (LENGTH_MEASURE( 1.000000000000000082E-05 ), #84, 'distance_accuracy_value', 'NONE');
#268 = ORIENTED_EDGE ( 'NONE', *, *, #211, .T. ) ;
#269 = CC_DESIGN_PERSON_AND_ORGANIZATION_ASSIGNMENT ( #38, #260, ( #154 ) ) ;
#270 = AXIS2_PLACEMENT_3D ( 'NONE', #4, #274, #148 ) ;
#271 = AXIS2_PLACEMENT_3D ( 'NONE', #103, #208, #296 ) ;
#272 = DIRECTION ( 'NONE',  ( 1.000000000000000000, 0.000000000000000000, 0.000000000000000000 ) ) ;
#273 = DIRECTION ( 'NONE',  ( -1.000000000000000000, 0.000000000000000000, 0.000000000000000000 ) ) ;
#274 = DIRECTION ( 'NONE',  ( 0.000000000000000000, 0.000000000000000000, 1.000000000000000000 ) ) ;
#275 = APPROVAL_PERSON_ORGANIZATION ( #253, #146, #232 ) ;
#276 = DIRECTION ( 'NONE',  ( 0.000000000000000000, 0.000000000000000000, -1.000000000000000000 ) ) ;
#277 = CARTESIAN_POINT ( 'NONE',  ( 2.449999999999999734, 0.000000000000000000, 2.999999999999990674 ) ) ;
#278 = PRODUCT_DEFINITION ( 'NEZNÁMÝ', '', #154, #27 ) ;
#279 = PERSON_AND_ORGANIZATION_ROLE ( 'design_owner' ) ;
#280 = PERSON_AND_ORGANIZATION ( #40, #29 ) ;
#281 = COORDINATED_UNIVERSAL_TIME_OFFSET ( 1, 0, .AHEAD. ) ;
#282 = ORIENTED_EDGE ( 'NONE', *, *, #211, .F. ) ;
#283 = APPLICATION_PROTOCOL_DEFINITION ( 'international standard', 'config_control_design', 1994, #63 ) ;
#284 = CARTESIAN_POINT ( 'NONE',  ( 2.250000000000000000, 2.755455298081544285E-16, 503.0000000000000000 ) ) ;
#285 = ORIENTED_EDGE ( 'NONE', *, *, #240, .F. ) ;
#286 = ORIENTED_EDGE ( 'NONE', *, *, #95, .F. ) ;
#287 = LOCAL_TIME ( 12, 21, 17.00000000000000000, #12 ) ;
#288 = EDGE_CURVE ( 'NONE', #44, #222, #218, .T. ) ;
#289 = FACE_OUTER_BOUND ( 'NONE', #61, .T. ) ;
#290 = VERTEX_POINT ( 'NONE', #77 ) ;
#291 = CYLINDRICAL_SURFACE ( 'NONE', #57, 2.250000000000000000 ) ;
#292 = ADVANCED_FACE ( 'NONE', ( #5 ), #176, .T. ) ;
#293 = CIRCLE ( 'NONE', #109, 2.250000000000000000 ) ;
#294 = DIRECTION ( 'NONE',  ( 0.000000000000000000, 0.000000000000000000, 1.000000000000000000 ) ) ;
#295 = DIRECTION ( 'NONE',  ( 0.000000000000000000, -1.000000000000000000, 0.000000000000000000 ) ) ;
#296 = DIRECTION ( 'NONE',  ( 1.000000000000000000, 0.000000000000000000, -0.000000000000000000 ) ) ;
#297 = PRODUCT ( 'a61e', 'a61e', '', ( #298 ) ) ;
#298 = MECHANICAL_CONTEXT ( 'NONE', #63, 'mechanical' ) ;
#299 = PERSON_AND_ORGANIZATION ( #40, #29 ) ;
#300 = AXIS2_PLACEMENT_3D ( 'NONE', #201, #81, #204 ) ;
#301 = EDGE_CURVE ( 'NONE', #18, #189, #53, .T. ) ;
#302 = DIRECTION ( 'NONE',  ( 0.000000000000000000, 0.000000000000000000, 1.000000000000000000 ) ) ;
#303 = VERTEX_POINT ( 'NONE', #30 ) ;
#304 = EDGE_CURVE ( 'NONE', #14, #290, #293, .T. ) ;
#305 = CARTESIAN_POINT ( 'NONE',  ( 4.000000000000000000, 4.898587196589412829E-16, 0.000000000000000000 ) ) ;
#306 = DIRECTION ( 'NONE',  ( 1.000000000000000000, 0.000000000000000000, 0.000000000000000000 ) ) ;
#307 = ORIENTED_EDGE ( 'NONE', *, *, #97, .F. ) ;
ENDSEC;
END-ISO-10303-21;
