ISO-10303-21;
HEADER;
FILE_DESCRIPTION (( 'STEP AP203' ),
    '1' );
FILE_NAME ('2ca3.STEP',
    '2022-07-07T10:37:38',
    ( '' ),
    ( '' ),
    'SwSTEP 2.0',
    'SolidWorks 2019',
    '' );
FILE_SCHEMA (( 'CONFIG_CONTROL_DESIGN' ));
ENDSEC;

DATA;
#1 = LOCAL_TIME ( 12, 37, 38.00000000000000000, #277 ) ;
#2 = CARTESIAN_POINT ( 'NONE',  ( 2.000000000000000000, 2.449293598294706414E-16, 1.500000000000000000 ) ) ;
#3 = CARTESIAN_POINT ( 'NONE',  ( -0.8499999999999999778, 0.000000000000000000, 1.700000000000007061 ) ) ;
#4 = VERTEX_POINT ( 'NONE', #2 ) ;
#5 = DIRECTION ( 'NONE',  ( 0.000000000000000000, 0.000000000000000000, 1.000000000000000000 ) ) ;
#6 = CARTESIAN_POINT ( 'NONE',  ( -2.000000000000000000, 0.000000000000000000, 1.500000000000000000 ) ) ;
#7 = FACE_OUTER_BOUND ( 'NONE', #138, .T. ) ;
#8 = EDGE_CURVE ( 'NONE', #21, #232, #142, .T. ) ;
#9 = CARTESIAN_POINT ( 'NONE',  ( 0.000000000000000000, 0.000000000000000000, 1.500000000000000000 ) ) ;
#10 = CC_DESIGN_PERSON_AND_ORGANIZATION_ASSIGNMENT ( #205, #203, ( #32 ) ) ;
#11 = CARTESIAN_POINT ( 'NONE',  ( 0.000000000000000000, 0.000000000000000000, 1.700000000000007061 ) ) ;
#12 = LINE ( 'NONE', #129, #88 ) ;
#13 = CIRCLE ( 'NONE', #300, 2.000000000000000000 ) ;
#14 = APPLICATION_CONTEXT ( 'configuration controlled 3d designs of mechanical parts and assemblies' ) ;
#15 = DIRECTION ( 'NONE',  ( -0.000000000000000000, -0.000000000000000000, -1.000000000000000000 ) ) ;
#16 = CIRCLE ( 'NONE', #92, 2.000000000000000000 ) ;
#17 = ORIENTED_EDGE ( 'NONE', *, *, #43, .F. ) ;
#18 = CALENDAR_DATE ( 2022, 7, 7 ) ;
#19 = VERTEX_POINT ( 'NONE', #44 ) ;
#20 = VERTEX_POINT ( 'NONE', #48 ) ;
#21 = VERTEX_POINT ( 'NONE', #191 ) ;
#22 = ORIENTED_EDGE ( 'NONE', *, *, #64, .T. ) ;
#23 = CARTESIAN_POINT ( 'NONE',  ( 0.000000000000000000, 0.000000000000000000, 161.5000000000000000 ) ) ;
#24 = CLOSED_SHELL ( 'NONE', ( #33, #110, #307, #252, #128, #275, #166, #62, #230 ) ) ;
#25 = ORIENTED_EDGE ( 'NONE', *, *, #261, .T. ) ;
#26 = CIRCLE ( 'NONE', #71, 2.000000000000000000 ) ;
#27 = DIRECTION ( 'NONE',  ( -0.000000000000000000, -0.000000000000000000, -1.000000000000000000 ) ) ;
#28 = DIRECTION ( 'NONE',  ( -0.000000000000000000, -0.000000000000000000, -1.000000000000000000 ) ) ;
#29 = AXIS2_PLACEMENT_3D ( 'NONE', #70, #5, #74 ) ;
#30 = CC_DESIGN_APPROVAL ( #264, ( #164 ) ) ;
#31 = DIRECTION ( 'NONE',  ( 1.000000000000000000, 0.000000000000000000, 0.000000000000000000 ) ) ;
#32 = PRODUCT ( '2ca3', '2ca3', '', ( #209 ) ) ;
#33 = ADVANCED_FACE ( 'NONE', ( #116 ), #69, .F. ) ;
#34 = PERSON_AND_ORGANIZATION ( #132, #147 ) ;
#35 = ORIENTED_EDGE ( 'NONE', *, *, #175, .F. ) ;
#36 = DATE_TIME_ROLE ( 'creation_date' ) ;
#37 = ORIENTED_EDGE ( 'NONE', *, *, #8, .F. ) ;
#38 =( NAMED_UNIT ( * ) PLANE_ANGLE_UNIT ( ) SI_UNIT ( $, .RADIAN. ) );
#39 = VERTEX_POINT ( 'NONE', #215 ) ;
#40 = APPROVAL_DATE_TIME ( #107, #119 ) ;
#41 = TOROIDAL_SURFACE ( 'NONE', #174, 1.050000000000000044, 0.2000000000000000111 ) ;
#42 = DIRECTION ( 'NONE',  ( -0.000000000000000000, -0.000000000000000000, -1.000000000000000000 ) ) ;
#43 = EDGE_CURVE ( 'NONE', #66, #21, #172, .T. ) ;
#44 = CARTESIAN_POINT ( 'NONE',  ( 0.8499999999999999778, 1.040949779275250140E-16, 161.5000000000000000 ) ) ;
#45 = DIRECTION ( 'NONE',  ( 1.000000000000000000, 0.000000000000000000, 0.000000000000000000 ) ) ;
#46 = AXIS2_PLACEMENT_3D ( 'NONE', #11, #101, #244 ) ;
#47 = CARTESIAN_POINT ( 'NONE',  ( 1.050000000000000044, 0.000000000000000000, 1.700000000000007061 ) ) ;
#48 = CARTESIAN_POINT ( 'NONE',  ( -0.8499999999999999778, 0.000000000000000000, 161.5000000000000000 ) ) ;
#49 = CIRCLE ( 'NONE', #243, 0.8499999999999999778 ) ;
#50 = DIRECTION ( 'NONE',  ( 0.000000000000000000, 0.000000000000000000, 1.000000000000000000 ) ) ;
#51 = EDGE_CURVE ( 'NONE', #19, #20, #184, .T. ) ;
#52 = LOCAL_TIME ( 12, 37, 38.00000000000000000, #186 ) ;
#53 = PLANE ( 'NONE',  #130 ) ;
#54 = DIRECTION ( 'NONE',  ( 1.000000000000000000, 0.000000000000000000, -0.000000000000000000 ) ) ;
#55 = CARTESIAN_POINT ( 'NONE',  ( 0.000000000000000000, 0.000000000000000000, 0.000000000000000000 ) ) ;
#56 = AXIS2_PLACEMENT_3D ( 'NONE', #220, #98, #45 ) ;
#57 = APPROVAL_PERSON_ORGANIZATION ( #161, #264, #276 ) ;
#58 = DIRECTION ( 'NONE',  ( -1.000000000000000000, 0.000000000000000000, 0.000000000000000000 ) ) ;
#59 = PERSON_AND_ORGANIZATION ( #132, #147 ) ;
#60 =( LENGTH_UNIT ( ) NAMED_UNIT ( * ) SI_UNIT ( .MILLI., .METRE. ) );
#61 = AXIS2_PLACEMENT_3D ( 'NONE', #23, #42, #306 ) ;
#62 = ADVANCED_FACE ( 'NONE', ( #94 ), #212, .T. ) ;
#63 = PERSON_AND_ORGANIZATION_ROLE ( 'classification_officer' ) ;
#64 = EDGE_CURVE ( 'NONE', #232, #21, #246, .T. ) ;
#65 = APPROVAL_DATE_TIME ( #156, #264 ) ;
#66 = VERTEX_POINT ( 'NONE', #3 ) ;
#67 = CARTESIAN_POINT ( 'NONE',  ( 0.000000000000000000, 0.000000000000000000, 1.500000000000000000 ) ) ;
#68 = ORIENTED_EDGE ( 'NONE', *, *, #43, .T. ) ;
#69 = TOROIDAL_SURFACE ( 'NONE', #29, 1.050000000000000044, 0.2000000000000000111 ) ;
#70 = CARTESIAN_POINT ( 'NONE',  ( 0.000000000000000000, 0.000000000000000000, 1.700000000000007061 ) ) ;
#71 = AXIS2_PLACEMENT_3D ( 'NONE', #9, #222, #196 ) ;
#72 = ORIENTED_EDGE ( 'NONE', *, *, #112, .T. ) ;
#73 = DIRECTION ( 'NONE',  ( -1.000000000000000000, 1.224646799147353207E-16, 0.000000000000000000 ) ) ;
#74 = DIRECTION ( 'NONE',  ( 1.000000000000000000, 0.000000000000000000, 0.000000000000000000 ) ) ;
#75 = VECTOR ( 'NONE', #28, 1000.000000000000000 ) ;
#76 = PRODUCT_DEFINITION ( 'NEZNÁMÝ', '', #164, #241 ) ;
#77 = ORIENTED_EDGE ( 'NONE', *, *, #8, .T. ) ;
#78 = CARTESIAN_POINT ( 'NONE',  ( 0.000000000000000000, 0.000000000000000000, 0.000000000000000000 ) ) ;
#79 = AXIS2_PLACEMENT_3D ( 'NONE', #167, #260, #93 ) ;
#80 = CARTESIAN_POINT ( 'NONE',  ( 0.8499999999999999778, 1.040949779275250140E-16, 161.5000000000000000 ) ) ;
#81 = CYLINDRICAL_SURFACE ( 'NONE', #99, 2.000000000000000000 ) ;
#82 = DIRECTION ( 'NONE',  ( -1.000000000000000000, 0.000000000000000000, 0.000000000000000000 ) ) ;
#83 = DIRECTION ( 'NONE',  ( 0.000000000000000000, 0.000000000000000000, 1.000000000000000000 ) ) ;
#84 = DATE_AND_TIME ( #294, #52 ) ;
#85 = EDGE_LOOP ( 'NONE', ( #236, #68, #231, #163 ) ) ;
#86 = PERSON_AND_ORGANIZATION ( #132, #147 ) ;
#87 = CYLINDRICAL_SURFACE ( 'NONE', #263, 2.000000000000000000 ) ;
#88 = VECTOR ( 'NONE', #292, 1000.000000000000000 ) ;
#89 = SECURITY_CLASSIFICATION_LEVEL ( 'unclassified' ) ;
#90 = VERTEX_POINT ( 'NONE', #165 ) ;
#91 = DIRECTION ( 'NONE',  ( 0.000000000000000000, -1.000000000000000000, 0.000000000000000000 ) ) ;
#92 = AXIS2_PLACEMENT_3D ( 'NONE', #173, #268, #148 ) ;
#93 = DIRECTION ( 'NONE',  ( 1.000000000000000000, 0.000000000000000000, 0.000000000000000000 ) ) ;
#94 = FACE_OUTER_BOUND ( 'NONE', #141, .T. ) ;
#95 = PRODUCT_RELATED_PRODUCT_CATEGORY ( 'detail', '', ( #32 ) ) ;
#96 = AXIS2_PLACEMENT_3D ( 'NONE', #281, #262, #118 ) ;
#97 = DATE_AND_TIME ( #137, #229 ) ;
#98 = DIRECTION ( 'NONE',  ( 0.000000000000000000, 0.000000000000000000, 1.000000000000000000 ) ) ;
#99 = AXIS2_PLACEMENT_3D ( 'NONE', #176, #270, #58 ) ;
#100 = ORIENTED_EDGE ( 'NONE', *, *, #234, .T. ) ;
#101 = DIRECTION ( 'NONE',  ( 0.000000000000000000, 0.000000000000000000, 1.000000000000000000 ) ) ;
#102 = CARTESIAN_POINT ( 'NONE',  ( 1.050000000000000044, 0.000000000000000000, 1.500000000000003553 ) ) ;
#103 = CC_DESIGN_SECURITY_CLASSIFICATION ( #154, ( #164 ) ) ;
#104 = DIRECTION ( 'NONE',  ( 0.000000000000000000, 0.000000000000000000, 1.000000000000000000 ) ) ;
#105 = CYLINDRICAL_SURFACE ( 'NONE', #213, 0.8499999999999999778 ) ;
#106 = CC_DESIGN_PERSON_AND_ORGANIZATION_ASSIGNMENT ( #86, #63, ( #154 ) ) ;
#107 = DATE_AND_TIME ( #114, #188 ) ;
#108 = AXIS2_PLACEMENT_3D ( 'NONE', #200, #178, #291 ) ;
#109 = PERSON_AND_ORGANIZATION ( #132, #147 ) ;
#110 = ADVANCED_FACE ( 'NONE', ( #259 ), #265, .T. ) ;
#111 = PERSON_AND_ORGANIZATION_ROLE ( 'creator' ) ;
#112 = EDGE_CURVE ( 'NONE', #117, #232, #223, .T. ) ;
#113 = APPLICATION_PROTOCOL_DEFINITION ( 'international standard', 'config_control_design', 1994, #297 ) ;
#114 = CALENDAR_DATE ( 2022, 7, 7 ) ;
#115 = APPROVAL_PERSON_ORGANIZATION ( #109, #119, #301 ) ;
#116 = FACE_OUTER_BOUND ( 'NONE', #85, .T. ) ;
#117 = VERTEX_POINT ( 'NONE', #189 ) ;
#118 = DIRECTION ( 'NONE',  ( 1.000000000000000000, 0.000000000000000000, 0.000000000000000000 ) ) ;
#119 = APPROVAL ( #296, 'NEURÈENÝ' ) ;
#120 = EDGE_LOOP ( 'NONE', ( #235, #299 ) ) ;
#121 = ORIENTED_EDGE ( 'NONE', *, *, #139, .T. ) ;
#122 =( GEOMETRIC_REPRESENTATION_CONTEXT ( 3 ) GLOBAL_UNCERTAINTY_ASSIGNED_CONTEXT ( ( #269 ) ) GLOBAL_UNIT_ASSIGNED_CONTEXT ( ( #60, #38, #182 ) ) REPRESENTATION_CONTEXT ( 'NONE', 'WORKASPACE' ) );
#123 = EDGE_CURVE ( 'NONE', #4, #170, #13, .T. ) ;
#124 = FACE_OUTER_BOUND ( 'NONE', #187, .T. ) ;
#125 = CARTESIAN_POINT ( 'NONE',  ( 0.000000000000000000, 0.000000000000000000, 161.5000000000000000 ) ) ;
#126 = FACE_OUTER_BOUND ( 'NONE', #169, .T. ) ;
#127 = LINE ( 'NONE', #247, #248 ) ;
#128 = ADVANCED_FACE ( 'NONE', ( #155, #126 ), #53, .T. ) ;
#129 = CARTESIAN_POINT ( 'NONE',  ( -2.000000000000000000, 0.000000000000000000, 1.500000000000000000 ) ) ;
#130 = AXIS2_PLACEMENT_3D ( 'NONE', #290, #83, #54 ) ;
#131 = ORIENTED_EDGE ( 'NONE', *, *, #179, .F. ) ;
#132 = PERSON ( 'NEURÈENÝ', 'NEURÈENÝ', 'NEURÈENÝ', ('NEURÈENÝ'), ('NEURÈENÝ'), ('NEURÈENÝ') ) ;
#133 = AXIS2_PLACEMENT_3D ( 'NONE', #253, #136, #158 ) ;
#134 = APPROVAL_STATUS ( 'not_yet_approved' ) ;
#135 = ORIENTED_EDGE ( 'NONE', *, *, #283, .F. ) ;
#136 = DIRECTION ( 'NONE',  ( 0.000000000000000000, 0.000000000000000000, 1.000000000000000000 ) ) ;
#137 = CALENDAR_DATE ( 2022, 7, 7 ) ;
#138 = EDGE_LOOP ( 'NONE', ( #17, #194, #72, #37 ) ) ;
#139 = EDGE_CURVE ( 'NONE', #20, #19, #49, .T. ) ;
#140 = COORDINATED_UNIVERSAL_TIME_OFFSET ( 1, 0, .AHEAD. ) ;
#141 = EDGE_LOOP ( 'NONE', ( #121, #214 ) ) ;
#142 = CIRCLE ( 'NONE', #79, 1.050000000000000044 ) ;
#143 = ORIENTED_EDGE ( 'NONE', *, *, #179, .T. ) ;
#144 = DIRECTION ( 'NONE',  ( 0.000000000000000000, 0.000000000000000000, -1.000000000000000000 ) ) ;
#145 = CARTESIAN_POINT ( 'NONE',  ( -1.050000000000000044, 1.285879139104720732E-16, 1.700000000000007061 ) ) ;
#146 = DIRECTION ( 'NONE',  ( 1.000000000000000000, 0.000000000000000000, 0.000000000000000000 ) ) ;
#147 = ORGANIZATION ( 'NEURÈENÝ', 'NEURÈENÝ', '' ) ;
#148 = DIRECTION ( 'NONE',  ( 1.000000000000000000, 0.000000000000000000, 0.000000000000000000 ) ) ;
#149 = EDGE_CURVE ( 'NONE', #66, #117, #239, .T. ) ;
#150 = CARTESIAN_POINT ( 'NONE',  ( -0.8499999999999999778, 0.000000000000000000, 161.5000000000000000 ) ) ;
#151 = AXIS2_PLACEMENT_3D ( 'NONE', #145, #284, #73 ) ;
#152 = DIRECTION ( 'NONE',  ( 1.000000000000000000, 0.000000000000000000, -0.000000000000000000 ) ) ;
#153 = CC_DESIGN_DATE_AND_TIME_ASSIGNMENT ( #84, #181, ( #154 ) ) ;
#154 = SECURITY_CLASSIFICATION ( '', '', #89 ) ;
#155 = FACE_BOUND ( 'NONE', #159, .T. ) ;
#156 = DATE_AND_TIME ( #18, #1 ) ;
#157 = ORIENTED_EDGE ( 'NONE', *, *, #193, .F. ) ;
#158 = DIRECTION ( 'NONE',  ( 1.000000000000000000, 0.000000000000000000, 0.000000000000000000 ) ) ;
#159 = EDGE_LOOP ( 'NONE', ( #22, #77 ) ) ;
#160 = CC_DESIGN_APPROVAL ( #202, ( #154 ) ) ;
#161 = PERSON_AND_ORGANIZATION ( #132, #147 ) ;
#162 = ORIENTED_EDGE ( 'NONE', *, *, #123, .T. ) ;
#163 = ORIENTED_EDGE ( 'NONE', *, *, #112, .F. ) ;
#164 = PRODUCT_DEFINITION_FORMATION_WITH_SPECIFIED_SOURCE ( 'LIBOVOLNÝ', '', #32, .NOT_KNOWN. ) ;
#165 = CARTESIAN_POINT ( 'NONE',  ( -2.000000000000000000, 0.000000000000000000, 0.000000000000000000 ) ) ;
#166 = ADVANCED_FACE ( 'NONE', ( #124 ), #105, .T. ) ;
#167 = CARTESIAN_POINT ( 'NONE',  ( 0.000000000000000000, 0.000000000000000000, 1.500000000000000000 ) ) ;
#168 = CARTESIAN_POINT ( 'NONE',  ( 0.000000000000000000, 0.000000000000000000, 161.5000000000000000 ) ) ;
#169 = EDGE_LOOP ( 'NONE', ( #288, #162 ) ) ;
#170 = VERTEX_POINT ( 'NONE', #6 ) ;
#171 = DIRECTION ( 'NONE',  ( 0.000000000000000000, 0.000000000000000000, 1.000000000000000000 ) ) ;
#172 = CIRCLE ( 'NONE', #151, 0.2000000000000000944 ) ;
#173 = CARTESIAN_POINT ( 'NONE',  ( 0.000000000000000000, 0.000000000000000000, 0.000000000000000000 ) ) ;
#174 = AXIS2_PLACEMENT_3D ( 'NONE', #224, #195, #197 ) ;
#175 = EDGE_CURVE ( 'NONE', #170, #4, #26, .T. ) ;
#176 = CARTESIAN_POINT ( 'NONE',  ( 0.000000000000000000, 0.000000000000000000, 1.500000000000000000 ) ) ;
#177 = FACE_OUTER_BOUND ( 'NONE', #120, .T. ) ;
#178 = DIRECTION ( 'NONE',  ( 0.000000000000000000, 0.000000000000000000, 1.000000000000000000 ) ) ;
#179 = EDGE_CURVE ( 'NONE', #20, #66, #272, .T. ) ;
#180 = CIRCLE ( 'NONE', #225, 2.000000000000000000 ) ;
#181 = DATE_TIME_ROLE ( 'classification_date' ) ;
#182 =( NAMED_UNIT ( * ) SI_UNIT ( $, .STERADIAN. ) SOLID_ANGLE_UNIT ( ) );
#183 = DATE_AND_TIME ( #185, #287 ) ;
#184 = CIRCLE ( 'NONE', #56, 0.8499999999999999778 ) ;
#185 = CALENDAR_DATE ( 2022, 7, 7 ) ;
#186 = COORDINATED_UNIVERSAL_TIME_OFFSET ( 1, 0, .AHEAD. ) ;
#187 = EDGE_LOOP ( 'NONE', ( #157, #211, #143, #255 ) ) ;
#188 = LOCAL_TIME ( 12, 37, 38.00000000000000000, #257 ) ;
#189 = CARTESIAN_POINT ( 'NONE',  ( 0.8499999999999999778, 1.040949779275250140E-16, 1.700000000000007061 ) ) ;
#190 = APPROVAL_DATE_TIME ( #97, #202 ) ;
#191 = CARTESIAN_POINT ( 'NONE',  ( -1.050000000000000044, 1.285879139104720732E-16, 1.500000000000003553 ) ) ;
#192 = ORIENTED_EDGE ( 'NONE', *, *, #208, .T. ) ;
#193 = EDGE_CURVE ( 'NONE', #19, #117, #201, .T. ) ;
#194 = ORIENTED_EDGE ( 'NONE', *, *, #234, .F. ) ;
#195 = DIRECTION ( 'NONE',  ( 0.000000000000000000, 0.000000000000000000, 1.000000000000000000 ) ) ;
#196 = DIRECTION ( 'NONE',  ( 1.000000000000000000, 0.000000000000000000, 0.000000000000000000 ) ) ;
#197 = DIRECTION ( 'NONE',  ( 1.000000000000000000, 0.000000000000000000, 0.000000000000000000 ) ) ;
#198 = APPROVAL_PERSON_ORGANIZATION ( #59, #202, #280 ) ;
#199 = CC_DESIGN_DATE_AND_TIME_ASSIGNMENT ( #183, #36, ( #76 ) ) ;
#200 = CARTESIAN_POINT ( 'NONE',  ( 0.000000000000000000, 0.000000000000000000, 1.700000000000007061 ) ) ;
#201 = LINE ( 'NONE', #80, #75 ) ;
#202 = APPROVAL ( #250, 'NEURÈENÝ' ) ;
#203 = PERSON_AND_ORGANIZATION_ROLE ( 'design_owner' ) ;
#204 = CIRCLE ( 'NONE', #108, 0.8499999999999999778 ) ;
#205 = PERSON_AND_ORGANIZATION ( #132, #147 ) ;
#206 = ADVANCED_BREP_SHAPE_REPRESENTATION ( '2ca3', ( #238, #133 ), #122 ) ;
#207 = PERSON_AND_ORGANIZATION ( #132, #147 ) ;
#208 = EDGE_CURVE ( 'NONE', #39, #90, #16, .T. ) ;
#209 = MECHANICAL_CONTEXT ( 'NONE', #297, 'mechanical' ) ;
#210 = CC_DESIGN_PERSON_AND_ORGANIZATION_ASSIGNMENT ( #34, #111, ( #164 ) ) ;
#211 = ORIENTED_EDGE ( 'NONE', *, *, #139, .F. ) ;
#212 = PLANE ( 'NONE',  #218 ) ;
#213 = AXIS2_PLACEMENT_3D ( 'NONE', #245, #27, #82 ) ;
#214 = ORIENTED_EDGE ( 'NONE', *, *, #51, .T. ) ;
#215 = CARTESIAN_POINT ( 'NONE',  ( 2.000000000000000000, 2.449293598294706414E-16, 0.000000000000000000 ) ) ;
#216 = SHAPE_DEFINITION_REPRESENTATION ( #286, #206 ) ;
#217 = EDGE_LOOP ( 'NONE', ( #135, #35, #25, #256 ) ) ;
#218 = AXIS2_PLACEMENT_3D ( 'NONE', #168, #242, #285 ) ;
#219 = VECTOR ( 'NONE', #293, 1000.000000000000000 ) ;
#220 = CARTESIAN_POINT ( 'NONE',  ( 0.000000000000000000, 0.000000000000000000, 161.5000000000000000 ) ) ;
#221 = CARTESIAN_POINT ( 'NONE',  ( 0.000000000000000000, 0.000000000000000000, 1.500000000000000000 ) ) ;
#222 = DIRECTION ( 'NONE',  ( 0.000000000000000000, 0.000000000000000000, 1.000000000000000000 ) ) ;
#223 = CIRCLE ( 'NONE', #237, 0.2000000000000000944 ) ;
#224 = CARTESIAN_POINT ( 'NONE',  ( 0.000000000000000000, 0.000000000000000000, 1.700000000000007061 ) ) ;
#225 = AXIS2_PLACEMENT_3D ( 'NONE', #78, #171, #31 ) ;
#226 = DIRECTION ( 'NONE',  ( 1.000000000000000000, 0.000000000000000000, 0.000000000000000000 ) ) ;
#227 = DIRECTION ( 'NONE',  ( -0.000000000000000000, -0.000000000000000000, -1.000000000000000000 ) ) ;
#228 = DIRECTION ( 'NONE',  ( -1.000000000000000000, 0.000000000000000000, 0.000000000000000000 ) ) ;
#229 = LOCAL_TIME ( 12, 37, 38.00000000000000000, #140 ) ;
#230 = ADVANCED_FACE ( 'NONE', ( #7 ), #41, .F. ) ;
#231 = ORIENTED_EDGE ( 'NONE', *, *, #64, .F. ) ;
#232 = VERTEX_POINT ( 'NONE', #102 ) ;
#233 = COORDINATED_UNIVERSAL_TIME_OFFSET ( 1, 0, .AHEAD. ) ;
#234 = EDGE_CURVE ( 'NONE', #117, #66, #204, .T. ) ;
#235 = ORIENTED_EDGE ( 'NONE', *, *, #303, .F. ) ;
#236 = ORIENTED_EDGE ( 'NONE', *, *, #149, .F. ) ;
#237 = AXIS2_PLACEMENT_3D ( 'NONE', #47, #91, #144 ) ;
#238 = MANIFOLD_SOLID_BREP ( 'Zaoblit1', #24 ) ;
#239 = CIRCLE ( 'NONE', #46, 0.8499999999999999778 ) ;
#240 = EDGE_LOOP ( 'NONE', ( #305, #254, #192, #266 ) ) ;
#241 = DESIGN_CONTEXT ( 'detailed design', #14, 'design' ) ;
#242 = DIRECTION ( 'NONE',  ( 0.000000000000000000, 0.000000000000000000, 1.000000000000000000 ) ) ;
#243 = AXIS2_PLACEMENT_3D ( 'NONE', #125, #50, #146 ) ;
#244 = DIRECTION ( 'NONE',  ( 1.000000000000000000, 0.000000000000000000, 0.000000000000000000 ) ) ;
#245 = CARTESIAN_POINT ( 'NONE',  ( 0.000000000000000000, 0.000000000000000000, 161.5000000000000000 ) ) ;
#246 = CIRCLE ( 'NONE', #96, 1.050000000000000044 ) ;
#247 = CARTESIAN_POINT ( 'NONE',  ( 2.000000000000000000, 2.449293598294706414E-16, 1.500000000000000000 ) ) ;
#248 = VECTOR ( 'NONE', #227, 1000.000000000000000 ) ;
#249 = FACE_OUTER_BOUND ( 'NONE', #217, .T. ) ;
#250 = APPROVAL_STATUS ( 'not_yet_approved' ) ;
#251 = ORIENTED_EDGE ( 'NONE', *, *, #51, .F. ) ;
#252 = ADVANCED_FACE ( 'NONE', ( #249 ), #81, .T. ) ;
#253 = CARTESIAN_POINT ( 'NONE',  ( 0.000000000000000000, 0.000000000000000000, 0.000000000000000000 ) ) ;
#254 = ORIENTED_EDGE ( 'NONE', *, *, #283, .T. ) ;
#255 = ORIENTED_EDGE ( 'NONE', *, *, #149, .T. ) ;
#256 = ORIENTED_EDGE ( 'NONE', *, *, #303, .T. ) ;
#257 = COORDINATED_UNIVERSAL_TIME_OFFSET ( 1, 0, .AHEAD. ) ;
#258 = CC_DESIGN_PERSON_AND_ORGANIZATION_ASSIGNMENT ( #207, #298, ( #164 ) ) ;
#259 = FACE_OUTER_BOUND ( 'NONE', #282, .T. ) ;
#260 = DIRECTION ( 'NONE',  ( -0.000000000000000000, -0.000000000000000000, -1.000000000000000000 ) ) ;
#261 = EDGE_CURVE ( 'NONE', #170, #90, #12, .T. ) ;
#262 = DIRECTION ( 'NONE',  ( -0.000000000000000000, -0.000000000000000000, -1.000000000000000000 ) ) ;
#263 = AXIS2_PLACEMENT_3D ( 'NONE', #67, #15, #228 ) ;
#264 = APPROVAL ( #134, 'NEURÈENÝ' ) ;
#265 = CYLINDRICAL_SURFACE ( 'NONE', #61, 0.8499999999999999778 ) ;
#266 = ORIENTED_EDGE ( 'NONE', *, *, #261, .F. ) ;
#267 = FACE_OUTER_BOUND ( 'NONE', #240, .T. ) ;
#268 = DIRECTION ( 'NONE',  ( 0.000000000000000000, 0.000000000000000000, 1.000000000000000000 ) ) ;
#269 = UNCERTAINTY_MEASURE_WITH_UNIT (LENGTH_MEASURE( 1.000000000000000082E-05 ), #60, 'distance_accuracy_value', 'NONE');
#270 = DIRECTION ( 'NONE',  ( -0.000000000000000000, -0.000000000000000000, -1.000000000000000000 ) ) ;
#271 = PLANE ( 'NONE',  #302 ) ;
#272 = LINE ( 'NONE', #150, #219 ) ;
#273 = CC_DESIGN_PERSON_AND_ORGANIZATION_ASSIGNMENT ( #304, #274, ( #76 ) ) ;
#274 = PERSON_AND_ORGANIZATION_ROLE ( 'creator' ) ;
#275 = ADVANCED_FACE ( 'NONE', ( #177 ), #271, .F. ) ;
#276 = APPROVAL_ROLE ( '' ) ;
#277 = COORDINATED_UNIVERSAL_TIME_OFFSET ( 1, 0, .AHEAD. ) ;
#278 = APPLICATION_PROTOCOL_DEFINITION ( 'international standard', 'config_control_design', 1994, #14 ) ;
#279 = ORIENTED_EDGE ( 'NONE', *, *, #193, .T. ) ;
#280 = APPROVAL_ROLE ( '' ) ;
#281 = CARTESIAN_POINT ( 'NONE',  ( 0.000000000000000000, 0.000000000000000000, 1.500000000000000000 ) ) ;
#282 = EDGE_LOOP ( 'NONE', ( #251, #279, #100, #131 ) ) ;
#283 = EDGE_CURVE ( 'NONE', #4, #39, #127, .T. ) ;
#284 = DIRECTION ( 'NONE',  ( 1.224646799147353207E-16, 1.000000000000000000, -0.000000000000000000 ) ) ;
#285 = DIRECTION ( 'NONE',  ( 1.000000000000000000, 0.000000000000000000, -0.000000000000000000 ) ) ;
#286 = PRODUCT_DEFINITION_SHAPE ( 'NONE', 'NONE',  #76 ) ;
#287 = LOCAL_TIME ( 12, 37, 38.00000000000000000, #233 ) ;
#288 = ORIENTED_EDGE ( 'NONE', *, *, #175, .T. ) ;
#289 = DIRECTION ( 'NONE',  ( 0.000000000000000000, 0.000000000000000000, 1.000000000000000000 ) ) ;
#290 = CARTESIAN_POINT ( 'NONE',  ( 0.000000000000000000, 0.000000000000000000, 1.500000000000000000 ) ) ;
#291 = DIRECTION ( 'NONE',  ( 1.000000000000000000, 0.000000000000000000, 0.000000000000000000 ) ) ;
#292 = DIRECTION ( 'NONE',  ( -0.000000000000000000, -0.000000000000000000, -1.000000000000000000 ) ) ;
#293 = DIRECTION ( 'NONE',  ( -0.000000000000000000, -0.000000000000000000, -1.000000000000000000 ) ) ;
#294 = CALENDAR_DATE ( 2022, 7, 7 ) ;
#295 = CC_DESIGN_APPROVAL ( #119, ( #76 ) ) ;
#296 = APPROVAL_STATUS ( 'not_yet_approved' ) ;
#297 = APPLICATION_CONTEXT ( 'configuration controlled 3d designs of mechanical parts and assemblies' ) ;
#298 = PERSON_AND_ORGANIZATION_ROLE ( 'design_supplier' ) ;
#299 = ORIENTED_EDGE ( 'NONE', *, *, #208, .F. ) ;
#300 = AXIS2_PLACEMENT_3D ( 'NONE', #221, #104, #226 ) ;
#301 = APPROVAL_ROLE ( '' ) ;
#302 = AXIS2_PLACEMENT_3D ( 'NONE', #55, #289, #152 ) ;
#303 = EDGE_CURVE ( 'NONE', #90, #39, #180, .T. ) ;
#304 = PERSON_AND_ORGANIZATION ( #132, #147 ) ;
#305 = ORIENTED_EDGE ( 'NONE', *, *, #123, .F. ) ;
#306 = DIRECTION ( 'NONE',  ( -1.000000000000000000, 0.000000000000000000, 0.000000000000000000 ) ) ;
#307 = ADVANCED_FACE ( 'NONE', ( #267 ), #87, .T. ) ;
ENDSEC;
END-ISO-10303-21;
