ISO-10303-21;
HEADER;
FILE_DESCRIPTION (( 'STEP AP203' ),
    '1' );
FILE_NAME ('d678.STEP',
    '2023-02-12T12:49:18',
    ( '' ),
    ( '' ),
    'SwSTEP 2.0',
    'SolidWorks 2019',
    '' );
FILE_SCHEMA (( 'CONFIG_CONTROL_DESIGN' ));
ENDSEC;

DATA;
#1 = PERSON_AND_ORGANIZATION ( #201, #188 ) ;
#2 = APPROVAL_ROLE ( '' ) ;
#3 = ORIENTED_EDGE ( 'NONE', *, *, #8, .T. ) ;
#4 = ORIENTED_EDGE ( 'NONE', *, *, #190, .F. ) ;
#5 = CARTESIAN_POINT ( 'NONE',  ( 2.500000000000000000, 3.061616997868383141E-16, 0.000000000000000000 ) ) ;
#6 = AXIS2_PLACEMENT_3D ( 'NONE', #36, #240, #59 ) ;
#7 =( LENGTH_UNIT ( ) NAMED_UNIT ( * ) SI_UNIT ( .MILLI., .METRE. ) );
#8 = EDGE_CURVE ( 'NONE', #93, #117, #111, .T. ) ;
#9 = EDGE_LOOP ( 'NONE', ( #254, #185, #76, #147 ) ) ;
#10 = PLANE ( 'NONE',  #118 ) ;
#11 = CALENDAR_DATE ( 2023, 12, 2 ) ;
#12 = ORIENTED_EDGE ( 'NONE', *, *, #176, .T. ) ;
#13 = ORIENTED_EDGE ( 'NONE', *, *, #119, .T. ) ;
#14 = CIRCLE ( 'NONE', #83, 1.250000000000000000 ) ;
#15 = CC_DESIGN_DATE_AND_TIME_ASSIGNMENT ( #150, #92, ( #34 ) ) ;
#16 = PERSON_AND_ORGANIZATION_ROLE ( 'classification_officer' ) ;
#17 = APPLICATION_PROTOCOL_DEFINITION ( 'international standard', 'config_control_design', 1994, #69 ) ;
#18 = ORIENTED_EDGE ( 'NONE', *, *, #110, .F. ) ;
#19 = APPROVAL_PERSON_ORGANIZATION ( #192, #113, #2 ) ;
#20 = PERSON_AND_ORGANIZATION ( #201, #188 ) ;
#21 = AXIS2_PLACEMENT_3D ( 'NONE', #125, #130, #26 ) ;
#22 = APPROVAL_DATE_TIME ( #37, #227 ) ;
#23 = APPROVAL_PERSON_ORGANIZATION ( #238, #71, #177 ) ;
#24 = ORIENTED_EDGE ( 'NONE', *, *, #237, .T. ) ;
#25 = CARTESIAN_POINT ( 'NONE',  ( 0.000000000000000000, 0.000000000000000000, 2.000000000000000000 ) ) ;
#26 = DIRECTION ( 'NONE',  ( 1.000000000000000000, 0.000000000000000000, 0.000000000000000000 ) ) ;
#27 = LOCAL_TIME ( 13, 49, 18.00000000000000000, #212 ) ;
#28 = DIRECTION ( 'NONE',  ( -0.000000000000000000, -0.000000000000000000, -1.000000000000000000 ) ) ;
#29 = ADVANCED_FACE ( 'NONE', ( #175 ), #120, .F. ) ;
#30 = CARTESIAN_POINT ( 'NONE',  ( -1.250000000000000000, 0.000000000000000000, 160.0000000000000000 ) ) ;
#31 = CARTESIAN_POINT ( 'NONE',  ( -1.250000000000000000, 0.000000000000000000, 2.000000000000000000 ) ) ;
#32 = MANIFOLD_SOLID_BREP ( 'Pøidat vysunutím3', #116 ) ;
#33 = CALENDAR_DATE ( 2023, 12, 2 ) ;
#34 = SECURITY_CLASSIFICATION ( '', '', #191 ) ;
#35 = ADVANCED_BREP_SHAPE_REPRESENTATION ( 'd678', ( #32, #154 ), #233 ) ;
#36 = CARTESIAN_POINT ( 'NONE',  ( 0.000000000000000000, 0.000000000000000000, 0.000000000000000000 ) ) ;
#37 = DATE_AND_TIME ( #11, #27 ) ;
#38 = ORIENTED_EDGE ( 'NONE', *, *, #110, .T. ) ;
#39 = PERSON_AND_ORGANIZATION ( #201, #188 ) ;
#40 = DIRECTION ( 'NONE',  ( 1.000000000000000000, 0.000000000000000000, 0.000000000000000000 ) ) ;
#41 = DIRECTION ( 'NONE',  ( -0.000000000000000000, -0.000000000000000000, -1.000000000000000000 ) ) ;
#42 = ORIENTED_EDGE ( 'NONE', *, *, #220, .T. ) ;
#43 = DIRECTION ( 'NONE',  ( 1.000000000000000000, 0.000000000000000000, 0.000000000000000000 ) ) ;
#44 = CARTESIAN_POINT ( 'NONE',  ( 0.000000000000000000, 0.000000000000000000, 2.000000000000000000 ) ) ;
#45 = FACE_OUTER_BOUND ( 'NONE', #213, .T. ) ;
#46 = DIRECTION ( 'NONE',  ( -1.000000000000000000, 0.000000000000000000, 0.000000000000000000 ) ) ;
#47 = AXIS2_PLACEMENT_3D ( 'NONE', #25, #101, #245 ) ;
#48 = LOCAL_TIME ( 13, 49, 18.00000000000000000, #160 ) ;
#49 = FACE_OUTER_BOUND ( 'NONE', #53, .T. ) ;
#50 = CYLINDRICAL_SURFACE ( 'NONE', #122, 1.250000000000000000 ) ;
#51 = CC_DESIGN_PERSON_AND_ORGANIZATION_ASSIGNMENT ( #189, #16, ( #34 ) ) ;
#52 = CALENDAR_DATE ( 2023, 12, 2 ) ;
#53 = EDGE_LOOP ( 'NONE', ( #80, #24 ) ) ;
#54 = COORDINATED_UNIVERSAL_TIME_OFFSET ( 1, 0, .AHEAD. ) ;
#55 = APPROVAL_STATUS ( 'not_yet_approved' ) ;
#56 = CC_DESIGN_PERSON_AND_ORGANIZATION_ASSIGNMENT ( #20, #97, ( #82 ) ) ;
#57 = APPROVAL_DATE_TIME ( #132, #71 ) ;
#58 = ORIENTED_EDGE ( 'NONE', *, *, #165, .T. ) ;
#59 = DIRECTION ( 'NONE',  ( 1.000000000000000000, 0.000000000000000000, -0.000000000000000000 ) ) ;
#60 = DIRECTION ( 'NONE',  ( 0.000000000000000000, 0.000000000000000000, 1.000000000000000000 ) ) ;
#61 = CC_DESIGN_APPROVAL ( #113, ( #82 ) ) ;
#62 = ORIENTED_EDGE ( 'NONE', *, *, #222, .T. ) ;
#63 = CYLINDRICAL_SURFACE ( 'NONE', #241, 2.500000000000000000 ) ;
#64 = DIRECTION ( 'NONE',  ( 1.000000000000000000, 0.000000000000000000, 0.000000000000000000 ) ) ;
#65 = CYLINDRICAL_SURFACE ( 'NONE', #179, 2.500000000000000000 ) ;
#66 = ORIENTED_EDGE ( 'NONE', *, *, #119, .F. ) ;
#67 = PRODUCT_DEFINITION_SHAPE ( 'NONE', 'NONE',  #82 ) ;
#68 = PLANE ( 'NONE',  #216 ) ;
#69 = APPLICATION_CONTEXT ( 'configuration controlled 3d designs of mechanical parts and assemblies' ) ;
#70 = DIRECTION ( 'NONE',  ( 0.000000000000000000, 0.000000000000000000, 1.000000000000000000 ) ) ;
#71 = APPROVAL ( #55, 'NEURÈENÝ' ) ;
#72 = CALENDAR_DATE ( 2023, 12, 2 ) ;
#73 = DIRECTION ( 'NONE',  ( -1.000000000000000000, 0.000000000000000000, 0.000000000000000000 ) ) ;
#74 = MECHANICAL_CONTEXT ( 'NONE', #69, 'mechanical' ) ;
#75 = ADVANCED_FACE ( 'NONE', ( #140 ), #63, .T. ) ;
#76 = ORIENTED_EDGE ( 'NONE', *, *, #190, .T. ) ;
#77 = PRODUCT_DEFINITION_FORMATION_WITH_SPECIFIED_SOURCE ( 'LIBOVOLNÝ', '', #218, .NOT_KNOWN. ) ;
#78 = COORDINATED_UNIVERSAL_TIME_OFFSET ( 1, 0, .AHEAD. ) ;
#79 = APPROVAL_DATE_TIME ( #215, #113 ) ;
#80 = ORIENTED_EDGE ( 'NONE', *, *, #242, .T. ) ;
#81 = CARTESIAN_POINT ( 'NONE',  ( 0.000000000000000000, 0.000000000000000000, 2.000000000000000000 ) ) ;
#82 = PRODUCT_DEFINITION ( 'NEZNÁMÝ', '', #77, #253 ) ;
#83 = AXIS2_PLACEMENT_3D ( 'NONE', #89, #221, #43 ) ;
#84 = ORIENTED_EDGE ( 'NONE', *, *, #161, .F. ) ;
#85 = FACE_BOUND ( 'NONE', #211, .T. ) ;
#86 = CYLINDRICAL_SURFACE ( 'NONE', #235, 1.250000000000000000 ) ;
#87 = CARTESIAN_POINT ( 'NONE',  ( 1.250000000000000000, 1.530808498934191571E-16, 160.0000000000000000 ) ) ;
#88 = CIRCLE ( 'NONE', #121, 1.250000000000000000 ) ;
#89 = CARTESIAN_POINT ( 'NONE',  ( 0.000000000000000000, 0.000000000000000000, 160.0000000000000000 ) ) ;
#90 = UNCERTAINTY_MEASURE_WITH_UNIT (LENGTH_MEASURE( 1.000000000000000082E-05 ), #7, 'distance_accuracy_value', 'NONE');
#91 = EDGE_LOOP ( 'NONE', ( #18, #156, #42, #3 ) ) ;
#92 = DATE_TIME_ROLE ( 'classification_date' ) ;
#93 = VERTEX_POINT ( 'NONE', #152 ) ;
#94 = CC_DESIGN_PERSON_AND_ORGANIZATION_ASSIGNMENT ( #39, #174, ( #218 ) ) ;
#95 = APPLICATION_PROTOCOL_DEFINITION ( 'international standard', 'config_control_design', 1994, #252 ) ;
#96 = ORIENTED_EDGE ( 'NONE', *, *, #222, .F. ) ;
#97 = PERSON_AND_ORGANIZATION_ROLE ( 'creator' ) ;
#98 = CARTESIAN_POINT ( 'NONE',  ( 2.500000000000000000, 3.061616997868383141E-16, 2.000000000000000000 ) ) ;
#99 = ADVANCED_FACE ( 'NONE', ( #230 ), #65, .T. ) ;
#100 = CC_DESIGN_APPROVAL ( #71, ( #77 ) ) ;
#101 = DIRECTION ( 'NONE',  ( 0.000000000000000000, 0.000000000000000000, 1.000000000000000000 ) ) ;
#102 = EDGE_CURVE ( 'NONE', #198, #247, #207, .T. ) ;
#103 = DIRECTION ( 'NONE',  ( 0.000000000000000000, 0.000000000000000000, 1.000000000000000000 ) ) ;
#104 = CC_DESIGN_PERSON_AND_ORGANIZATION_ASSIGNMENT ( #1, #178, ( #77 ) ) ;
#105 = LINE ( 'NONE', #228, #167 ) ;
#106 = CARTESIAN_POINT ( 'NONE',  ( 0.000000000000000000, 0.000000000000000000, 0.000000000000000000 ) ) ;
#107 = CARTESIAN_POINT ( 'NONE',  ( 0.000000000000000000, 0.000000000000000000, 160.0000000000000000 ) ) ;
#108 = CARTESIAN_POINT ( 'NONE',  ( 0.000000000000000000, 0.000000000000000000, 2.000000000000000000 ) ) ;
#109 = AXIS2_PLACEMENT_3D ( 'NONE', #81, #103, #64 ) ;
#110 = EDGE_CURVE ( 'NONE', #236, #117, #217, .T. ) ;
#111 = CIRCLE ( 'NONE', #186, 2.500000000000000000 ) ;
#112 = APPROVAL_STATUS ( 'not_yet_approved' ) ;
#113 = APPROVAL ( #112, 'NEURÈENÝ' ) ;
#114 = ORIENTED_EDGE ( 'NONE', *, *, #220, .F. ) ;
#115 = DATE_AND_TIME ( #33, #48 ) ;
#116 = CLOSED_SHELL ( 'NONE', ( #169, #99, #75, #184, #29, #153, #193 ) ) ;
#117 = VERTEX_POINT ( 'NONE', #5 ) ;
#118 = AXIS2_PLACEMENT_3D ( 'NONE', #44, #199, #224 ) ;
#119 = EDGE_CURVE ( 'NONE', #117, #93, #131, .T. ) ;
#120 = PLANE ( 'NONE',  #6 ) ;
#121 = AXIS2_PLACEMENT_3D ( 'NONE', #146, #70, #229 ) ;
#122 = AXIS2_PLACEMENT_3D ( 'NONE', #226, #28, #73 ) ;
#123 = PRODUCT_RELATED_PRODUCT_CATEGORY ( 'detail', '', ( #218 ) ) ;
#124 = CARTESIAN_POINT ( 'NONE',  ( 2.500000000000000000, 3.061616997868383141E-16, 2.000000000000000000 ) ) ;
#125 = CARTESIAN_POINT ( 'NONE',  ( 0.000000000000000000, 0.000000000000000000, 0.000000000000000000 ) ) ;
#126 = CARTESIAN_POINT ( 'NONE',  ( 1.250000000000000000, 1.530808498934191571E-16, 2.000000000000000000 ) ) ;
#127 = DIRECTION ( 'NONE',  ( -0.000000000000000000, -0.000000000000000000, -1.000000000000000000 ) ) ;
#128 = CC_DESIGN_PERSON_AND_ORGANIZATION_ASSIGNMENT ( #139, #209, ( #77 ) ) ;
#129 = DIRECTION ( 'NONE',  ( 0.000000000000000000, 0.000000000000000000, 1.000000000000000000 ) ) ;
#130 = DIRECTION ( 'NONE',  ( 0.000000000000000000, 0.000000000000000000, 1.000000000000000000 ) ) ;
#131 = CIRCLE ( 'NONE', #21, 2.500000000000000000 ) ;
#132 = DATE_AND_TIME ( #52, #181 ) ;
#133 = ORIENTED_EDGE ( 'NONE', *, *, #237, .F. ) ;
#134 = APPROVAL_PERSON_ORGANIZATION ( #157, #227, #231 ) ;
#135 =( NAMED_UNIT ( * ) PLANE_ANGLE_UNIT ( ) SI_UNIT ( $, .RADIAN. ) );
#136 = ORIENTED_EDGE ( 'NONE', *, *, #102, .T. ) ;
#137 = COORDINATED_UNIVERSAL_TIME_OFFSET ( 1, 0, .AHEAD. ) ;
#138 = VECTOR ( 'NONE', #149, 1000.000000000000000 ) ;
#139 = PERSON_AND_ORGANIZATION ( #201, #188 ) ;
#140 = FACE_OUTER_BOUND ( 'NONE', #91, .T. ) ;
#141 = CC_DESIGN_SECURITY_CLASSIFICATION ( #34, ( #77 ) ) ;
#142 = DIRECTION ( 'NONE',  ( 1.000000000000000000, 0.000000000000000000, 0.000000000000000000 ) ) ;
#143 = CARTESIAN_POINT ( 'NONE',  ( 0.000000000000000000, 0.000000000000000000, 2.000000000000000000 ) ) ;
#144 = CARTESIAN_POINT ( 'NONE',  ( -2.500000000000000000, 0.000000000000000000, 2.000000000000000000 ) ) ;
#145 = DIRECTION ( 'NONE',  ( 0.000000000000000000, 0.000000000000000000, 1.000000000000000000 ) ) ;
#146 = CARTESIAN_POINT ( 'NONE',  ( 0.000000000000000000, 0.000000000000000000, 2.000000000000000000 ) ) ;
#147 = ORIENTED_EDGE ( 'NONE', *, *, #161, .T. ) ;
#148 = DIRECTION ( 'NONE',  ( 1.000000000000000000, 0.000000000000000000, -0.000000000000000000 ) ) ;
#149 = DIRECTION ( 'NONE',  ( -0.000000000000000000, -0.000000000000000000, -1.000000000000000000 ) ) ;
#150 = DATE_AND_TIME ( #72, #155 ) ;
#151 = DIRECTION ( 'NONE',  ( 0.000000000000000000, 0.000000000000000000, 1.000000000000000000 ) ) ;
#152 = CARTESIAN_POINT ( 'NONE',  ( -2.500000000000000000, 0.000000000000000000, 0.000000000000000000 ) ) ;
#153 = ADVANCED_FACE ( 'NONE', ( #183 ), #86, .T. ) ;
#154 = AXIS2_PLACEMENT_3D ( 'NONE', #251, #129, #204 ) ;
#155 = LOCAL_TIME ( 13, 49, 18.00000000000000000, #137 ) ;
#156 = ORIENTED_EDGE ( 'NONE', *, *, #242, .F. ) ;
#157 = PERSON_AND_ORGANIZATION ( #201, #188 ) ;
#158 = VERTEX_POINT ( 'NONE', #31 ) ;
#159 = CALENDAR_DATE ( 2023, 12, 2 ) ;
#160 = COORDINATED_UNIVERSAL_TIME_OFFSET ( 1, 0, .AHEAD. ) ;
#161 = EDGE_CURVE ( 'NONE', #158, #205, #88, .T. ) ;
#162 = LOCAL_TIME ( 13, 49, 18.00000000000000000, #78 ) ;
#163 = DIRECTION ( 'NONE',  ( 0.000000000000000000, 0.000000000000000000, 1.000000000000000000 ) ) ;
#164 = DIRECTION ( 'NONE',  ( -0.000000000000000000, -0.000000000000000000, -1.000000000000000000 ) ) ;
#165 = EDGE_CURVE ( 'NONE', #247, #205, #246, .T. ) ;
#166 = CARTESIAN_POINT ( 'NONE',  ( 0.000000000000000000, 0.000000000000000000, 160.0000000000000000 ) ) ;
#167 = VECTOR ( 'NONE', #200, 1000.000000000000000 ) ;
#168 = DIRECTION ( 'NONE',  ( -1.000000000000000000, 0.000000000000000000, 0.000000000000000000 ) ) ;
#169 = ADVANCED_FACE ( 'NONE', ( #45 ), #50, .T. ) ;
#170 = CC_DESIGN_DATE_AND_TIME_ASSIGNMENT ( #115, #239, ( #82 ) ) ;
#171 =( NAMED_UNIT ( * ) SI_UNIT ( $, .STERADIAN. ) SOLID_ANGLE_UNIT ( ) );
#172 = AXIS2_PLACEMENT_3D ( 'NONE', #182, #60, #142 ) ;
#173 = ORIENTED_EDGE ( 'NONE', *, *, #176, .F. ) ;
#174 = PERSON_AND_ORGANIZATION_ROLE ( 'design_owner' ) ;
#175 = FACE_OUTER_BOUND ( 'NONE', #195, .T. ) ;
#176 = EDGE_CURVE ( 'NONE', #205, #158, #250, .T. ) ;
#177 = APPROVAL_ROLE ( '' ) ;
#178 = PERSON_AND_ORGANIZATION_ROLE ( 'design_supplier' ) ;
#179 = AXIS2_PLACEMENT_3D ( 'NONE', #108, #187, #46 ) ;
#180 = EDGE_LOOP ( 'NONE', ( #136, #62 ) ) ;
#181 = LOCAL_TIME ( 13, 49, 18.00000000000000000, #54 ) ;
#182 = CARTESIAN_POINT ( 'NONE',  ( 0.000000000000000000, 0.000000000000000000, 160.0000000000000000 ) ) ;
#183 = FACE_OUTER_BOUND ( 'NONE', #9, .T. ) ;
#184 = ADVANCED_FACE ( 'NONE', ( #85, #49 ), #10, .T. ) ;
#185 = ORIENTED_EDGE ( 'NONE', *, *, #102, .F. ) ;
#186 = AXIS2_PLACEMENT_3D ( 'NONE', #106, #151, #40 ) ;
#187 = DIRECTION ( 'NONE',  ( -0.000000000000000000, -0.000000000000000000, -1.000000000000000000 ) ) ;
#188 = ORGANIZATION ( 'NEURÈENÝ', 'NEURÈENÝ', '' ) ;
#189 = PERSON_AND_ORGANIZATION ( #201, #188 ) ;
#190 = EDGE_CURVE ( 'NONE', #198, #158, #244, .T. ) ;
#191 = SECURITY_CLASSIFICATION_LEVEL ( 'unclassified' ) ;
#192 = PERSON_AND_ORGANIZATION ( #201, #188 ) ;
#193 = ADVANCED_FACE ( 'NONE', ( #248 ), #68, .T. ) ;
#194 = DIRECTION ( 'NONE',  ( -1.000000000000000000, 0.000000000000000000, 0.000000000000000000 ) ) ;
#195 = EDGE_LOOP ( 'NONE', ( #234, #66 ) ) ;
#196 = CIRCLE ( 'NONE', #109, 2.500000000000000000 ) ;
#197 = SHAPE_DEFINITION_REPRESENTATION ( #67, #35 ) ;
#198 = VERTEX_POINT ( 'NONE', #30 ) ;
#199 = DIRECTION ( 'NONE',  ( 0.000000000000000000, 0.000000000000000000, 1.000000000000000000 ) ) ;
#200 = DIRECTION ( 'NONE',  ( -0.000000000000000000, -0.000000000000000000, -1.000000000000000000 ) ) ;
#201 = PERSON ( 'NEURÈENÝ', 'NEURÈENÝ', 'NEURÈENÝ', ('NEURÈENÝ'), ('NEURÈENÝ'), ('NEURÈENÝ') ) ;
#202 = CARTESIAN_POINT ( 'NONE',  ( 1.250000000000000000, 1.530808498934191571E-16, 160.0000000000000000 ) ) ;
#203 = VECTOR ( 'NONE', #41, 1000.000000000000000 ) ;
#204 = DIRECTION ( 'NONE',  ( 1.000000000000000000, 0.000000000000000000, 0.000000000000000000 ) ) ;
#205 = VERTEX_POINT ( 'NONE', #126 ) ;
#206 = VECTOR ( 'NONE', #127, 1000.000000000000000 ) ;
#207 = CIRCLE ( 'NONE', #172, 1.250000000000000000 ) ;
#208 = VERTEX_POINT ( 'NONE', #144 ) ;
#209 = PERSON_AND_ORGANIZATION_ROLE ( 'creator' ) ;
#210 = CC_DESIGN_APPROVAL ( #227, ( #34 ) ) ;
#211 = EDGE_LOOP ( 'NONE', ( #84, #173 ) ) ;
#212 = COORDINATED_UNIVERSAL_TIME_OFFSET ( 1, 0, .AHEAD. ) ;
#213 = EDGE_LOOP ( 'NONE', ( #96, #58, #12, #4 ) ) ;
#214 = APPROVAL_STATUS ( 'not_yet_approved' ) ;
#215 = DATE_AND_TIME ( #159, #162 ) ;
#216 = AXIS2_PLACEMENT_3D ( 'NONE', #107, #163, #148 ) ;
#217 = LINE ( 'NONE', #98, #203 ) ;
#218 = PRODUCT ( 'd678', 'd678', '', ( #74 ) ) ;
#219 = DIRECTION ( 'NONE',  ( -0.000000000000000000, -0.000000000000000000, -1.000000000000000000 ) ) ;
#220 = EDGE_CURVE ( 'NONE', #208, #93, #105, .T. ) ;
#221 = DIRECTION ( 'NONE',  ( 0.000000000000000000, 0.000000000000000000, 1.000000000000000000 ) ) ;
#222 = EDGE_CURVE ( 'NONE', #247, #198, #14, .T. ) ;
#223 = CARTESIAN_POINT ( 'NONE',  ( -1.250000000000000000, 0.000000000000000000, 160.0000000000000000 ) ) ;
#224 = DIRECTION ( 'NONE',  ( 1.000000000000000000, 0.000000000000000000, -0.000000000000000000 ) ) ;
#225 = AXIS2_PLACEMENT_3D ( 'NONE', #232, #145, #249 ) ;
#226 = CARTESIAN_POINT ( 'NONE',  ( 0.000000000000000000, 0.000000000000000000, 160.0000000000000000 ) ) ;
#227 = APPROVAL ( #214, 'NEURÈENÝ' ) ;
#228 = CARTESIAN_POINT ( 'NONE',  ( -2.500000000000000000, 0.000000000000000000, 2.000000000000000000 ) ) ;
#229 = DIRECTION ( 'NONE',  ( 1.000000000000000000, 0.000000000000000000, 0.000000000000000000 ) ) ;
#230 = FACE_OUTER_BOUND ( 'NONE', #255, .T. ) ;
#231 = APPROVAL_ROLE ( '' ) ;
#232 = CARTESIAN_POINT ( 'NONE',  ( 0.000000000000000000, 0.000000000000000000, 2.000000000000000000 ) ) ;
#233 =( GEOMETRIC_REPRESENTATION_CONTEXT ( 3 ) GLOBAL_UNCERTAINTY_ASSIGNED_CONTEXT ( ( #90 ) ) GLOBAL_UNIT_ASSIGNED_CONTEXT ( ( #7, #135, #171 ) ) REPRESENTATION_CONTEXT ( 'NONE', 'WORKASPACE' ) );
#234 = ORIENTED_EDGE ( 'NONE', *, *, #8, .F. ) ;
#235 = AXIS2_PLACEMENT_3D ( 'NONE', #166, #164, #168 ) ;
#236 = VERTEX_POINT ( 'NONE', #124 ) ;
#237 = EDGE_CURVE ( 'NONE', #236, #208, #243, .T. ) ;
#238 = PERSON_AND_ORGANIZATION ( #201, #188 ) ;
#239 = DATE_TIME_ROLE ( 'creation_date' ) ;
#240 = DIRECTION ( 'NONE',  ( 0.000000000000000000, 0.000000000000000000, 1.000000000000000000 ) ) ;
#241 = AXIS2_PLACEMENT_3D ( 'NONE', #143, #219, #194 ) ;
#242 = EDGE_CURVE ( 'NONE', #208, #236, #196, .T. ) ;
#243 = CIRCLE ( 'NONE', #47, 2.500000000000000000 ) ;
#244 = LINE ( 'NONE', #223, #206 ) ;
#245 = DIRECTION ( 'NONE',  ( 1.000000000000000000, 0.000000000000000000, 0.000000000000000000 ) ) ;
#246 = LINE ( 'NONE', #87, #138 ) ;
#247 = VERTEX_POINT ( 'NONE', #202 ) ;
#248 = FACE_OUTER_BOUND ( 'NONE', #180, .T. ) ;
#249 = DIRECTION ( 'NONE',  ( 1.000000000000000000, 0.000000000000000000, 0.000000000000000000 ) ) ;
#250 = CIRCLE ( 'NONE', #225, 1.250000000000000000 ) ;
#251 = CARTESIAN_POINT ( 'NONE',  ( 0.000000000000000000, 0.000000000000000000, 0.000000000000000000 ) ) ;
#252 = APPLICATION_CONTEXT ( 'configuration controlled 3d designs of mechanical parts and assemblies' ) ;
#253 = DESIGN_CONTEXT ( 'detailed design', #252, 'design' ) ;
#254 = ORIENTED_EDGE ( 'NONE', *, *, #165, .F. ) ;
#255 = EDGE_LOOP ( 'NONE', ( #133, #38, #13, #114 ) ) ;
ENDSEC;
END-ISO-10303-21;
