ISO-10303-21;
HEADER;
FILE_DESCRIPTION (( 'STEP AP203' ),
    '1' );
FILE_NAME ('3a3e.STEP',
    '2022-07-07T10:39:58',
    ( '' ),
    ( '' ),
    'SwSTEP 2.0',
    'SolidWorks 2019',
    '' );
FILE_SCHEMA (( 'CONFIG_CONTROL_DESIGN' ));
ENDSEC;

DATA;
#1 = CC_DESIGN_PERSON_AND_ORGANIZATION_ASSIGNMENT ( #8, #108, ( #12 ) ) ;
#2 = ORIENTED_EDGE ( 'NONE', *, *, #132, .F. ) ;
#3 = AXIS2_PLACEMENT_3D ( 'NONE', #112, #303, #40 ) ;
#4 = PERSON ( 'NEURÈENÝ', 'NEURÈENÝ', 'NEURÈENÝ', ('NEURÈENÝ'), ('NEURÈENÝ'), ('NEURÈENÝ') ) ;
#5 = CARTESIAN_POINT ( 'NONE',  ( -0.6500000000000000222, 0.000000000000000000, 161.5000000000000000 ) ) ;
#6 = PERSON_AND_ORGANIZATION ( #4, #207 ) ;
#7 = CIRCLE ( 'NONE', #204, 0.6500000000000000222 ) ;
#8 = PERSON_AND_ORGANIZATION ( #4, #207 ) ;
#9 = VERTEX_POINT ( 'NONE', #281 ) ;
#10 =( GEOMETRIC_REPRESENTATION_CONTEXT ( 3 ) GLOBAL_UNCERTAINTY_ASSIGNED_CONTEXT ( ( #11 ) ) GLOBAL_UNIT_ASSIGNED_CONTEXT ( ( #22, #261, #117 ) ) REPRESENTATION_CONTEXT ( 'NONE', 'WORKASPACE' ) );
#11 = UNCERTAINTY_MEASURE_WITH_UNIT (LENGTH_MEASURE( 1.000000000000000082E-05 ), #22, 'distance_accuracy_value', 'NONE');
#12 = PRODUCT ( '3a3e', '3a3e', '', ( #29 ) ) ;
#13 = EDGE_CURVE ( 'NONE', #285, #102, #171, .T. ) ;
#14 = CARTESIAN_POINT ( 'NONE',  ( 0.000000000000000000, 0.000000000000000000, 1.500000000000000000 ) ) ;
#15 = DIRECTION ( 'NONE',  ( 1.000000000000000000, 0.000000000000000000, 0.000000000000000000 ) ) ;
#16 = ORIENTED_EDGE ( 'NONE', *, *, #13, .T. ) ;
#17 = CARTESIAN_POINT ( 'NONE',  ( 0.8499999999999999778, 0.000000000000000000, 1.500000000000003553 ) ) ;
#18 = ORIENTED_EDGE ( 'NONE', *, *, #25, .T. ) ;
#19 = COORDINATED_UNIVERSAL_TIME_OFFSET ( 1, 0, .AHEAD. ) ;
#20 = CARTESIAN_POINT ( 'NONE',  ( 0.000000000000000000, 0.000000000000000000, 0.000000000000000000 ) ) ;
#21 = TOROIDAL_SURFACE ( 'NONE', #200, 0.8499999999999999778, 0.2000000000000000111 ) ;
#22 =( LENGTH_UNIT ( ) NAMED_UNIT ( * ) SI_UNIT ( .MILLI., .METRE. ) );
#23 = VERTEX_POINT ( 'NONE', #52 ) ;
#24 = DATE_AND_TIME ( #282, #243 ) ;
#25 = EDGE_CURVE ( 'NONE', #289, #102, #271, .T. ) ;
#26 = ORIENTED_EDGE ( 'NONE', *, *, #134, .F. ) ;
#27 = COORDINATED_UNIVERSAL_TIME_OFFSET ( 1, 0, .AHEAD. ) ;
#28 = CC_DESIGN_PERSON_AND_ORGANIZATION_ASSIGNMENT ( #6, #259, ( #107 ) ) ;
#29 = MECHANICAL_CONTEXT ( 'NONE', #274, 'mechanical' ) ;
#30 = PERSON_AND_ORGANIZATION ( #4, #207 ) ;
#31 = ORIENTED_EDGE ( 'NONE', *, *, #134, .T. ) ;
#32 = MANIFOLD_SOLID_BREP ( 'Zaoblit1', #59 ) ;
#33 = AXIS2_PLACEMENT_3D ( 'NONE', #260, #87, #120 ) ;
#34 = ADVANCED_FACE ( 'NONE', ( #213 ), #262, .T. ) ;
#35 = ORIENTED_EDGE ( 'NONE', *, *, #182, .F. ) ;
#36 = DIRECTION ( 'NONE',  ( 1.000000000000000000, 0.000000000000000000, 0.000000000000000000 ) ) ;
#37 = DIRECTION ( 'NONE',  ( 0.000000000000000000, 0.000000000000000000, 1.000000000000000000 ) ) ;
#38 = CC_DESIGN_APPROVAL ( #240, ( #107 ) ) ;
#39 = VERTEX_POINT ( 'NONE', #216 ) ;
#40 = DIRECTION ( 'NONE',  ( -1.000000000000000000, 0.000000000000000000, 0.000000000000000000 ) ) ;
#41 = EDGE_CURVE ( 'NONE', #144, #43, #237, .T. ) ;
#42 = DIRECTION ( 'NONE',  ( -0.000000000000000000, -0.000000000000000000, -1.000000000000000000 ) ) ;
#43 = VERTEX_POINT ( 'NONE', #195 ) ;
#44 = APPROVAL_DATE_TIME ( #165, #240 ) ;
#45 = CARTESIAN_POINT ( 'NONE',  ( 0.000000000000000000, 0.000000000000000000, 1.700000000000007061 ) ) ;
#46 = VECTOR ( 'NONE', #286, 1000.000000000000000 ) ;
#47 = DIRECTION ( 'NONE',  ( -1.000000000000000000, 0.000000000000000000, 0.000000000000000000 ) ) ;
#48 = ORIENTED_EDGE ( 'NONE', *, *, #41, .T. ) ;
#49 = COORDINATED_UNIVERSAL_TIME_OFFSET ( 1, 0, .AHEAD. ) ;
#50 = FACE_OUTER_BOUND ( 'NONE', #228, .T. ) ;
#51 = AXIS2_PLACEMENT_3D ( 'NONE', #229, #215, #224 ) ;
#52 = CARTESIAN_POINT ( 'NONE',  ( -1.500000000000000222, 0.000000000000000000, 1.500000000000000000 ) ) ;
#53 = PERSON_AND_ORGANIZATION ( #4, #207 ) ;
#54 = ADVANCED_FACE ( 'NONE', ( #292 ), #74, .T. ) ;
#55 = APPROVAL_DATE_TIME ( #24, #98 ) ;
#56 = ORIENTED_EDGE ( 'NONE', *, *, #58, .T. ) ;
#57 = EDGE_CURVE ( 'NONE', #144, #192, #268, .T. ) ;
#58 = EDGE_CURVE ( 'NONE', #192, #144, #85, .T. ) ;
#59 = CLOSED_SHELL ( 'NONE', ( #202, #54, #170, #230, #60, #81, #34, #199, #62 ) ) ;
#60 = ADVANCED_FACE ( 'NONE', ( #208, #50 ), #166, .T. ) ;
#61 = APPROVAL ( #253, 'NEURÈENÝ' ) ;
#62 = ADVANCED_FACE ( 'NONE', ( #150 ), #109, .F. ) ;
#63 = EDGE_CURVE ( 'NONE', #192, #9, #189, .T. ) ;
#64 = DIRECTION ( 'NONE',  ( 1.000000000000000000, 0.000000000000000000, 0.000000000000000000 ) ) ;
#65 = EDGE_LOOP ( 'NONE', ( #305, #218 ) ) ;
#66 = CARTESIAN_POINT ( 'NONE',  ( 0.6500000000000000222, 7.960204194457795477E-17, 161.5000000000000000 ) ) ;
#67 = CIRCLE ( 'NONE', #241, 1.500000000000000222 ) ;
#68 = DIRECTION ( 'NONE',  ( 0.000000000000000000, 0.000000000000000000, 1.000000000000000000 ) ) ;
#69 = CARTESIAN_POINT ( 'NONE',  ( 1.500000000000000222, 1.836970198721030181E-16, 1.500000000000000000 ) ) ;
#70 = CALENDAR_DATE ( 2022, 7, 7 ) ;
#71 = DIRECTION ( 'NONE',  ( 0.000000000000000000, 0.000000000000000000, 1.000000000000000000 ) ) ;
#72 = FACE_OUTER_BOUND ( 'NONE', #123, .T. ) ;
#73 = DIRECTION ( 'NONE',  ( -0.000000000000000000, -0.000000000000000000, -1.000000000000000000 ) ) ;
#74 = CYLINDRICAL_SURFACE ( 'NONE', #3, 0.6500000000000000222 ) ;
#75 = CARTESIAN_POINT ( 'NONE',  ( 0.000000000000000000, 0.000000000000000000, 1.500000000000000000 ) ) ;
#76 = ORIENTED_EDGE ( 'NONE', *, *, #57, .T. ) ;
#77 = LOCAL_TIME ( 12, 39, 58.00000000000000000, #19 ) ;
#78 = DIRECTION ( 'NONE',  ( 1.000000000000000000, 0.000000000000000000, -0.000000000000000000 ) ) ;
#79 = ORIENTED_EDGE ( 'NONE', *, *, #130, .F. ) ;
#80 = CALENDAR_DATE ( 2022, 7, 7 ) ;
#81 = ADVANCED_FACE ( 'NONE', ( #146 ), #140, .F. ) ;
#82 = AXIS2_PLACEMENT_3D ( 'NONE', #137, #88, #142 ) ;
#83 = APPROVAL_PERSON_ORGANIZATION ( #175, #61, #219 ) ;
#84 = EDGE_CURVE ( 'NONE', #39, #141, #258, .T. ) ;
#85 = CIRCLE ( 'NONE', #245, 0.6500000000000000222 ) ;
#86 = DESIGN_CONTEXT ( 'detailed design', #287, 'design' ) ;
#87 = DIRECTION ( 'NONE',  ( -0.000000000000000000, -0.000000000000000000, -1.000000000000000000 ) ) ;
#88 = DIRECTION ( 'NONE',  ( 1.224646799147353207E-16, 1.000000000000000000, -0.000000000000000000 ) ) ;
#89 = DIRECTION ( 'NONE',  ( 0.000000000000000000, 0.000000000000000000, 1.000000000000000000 ) ) ;
#90 = ORIENTED_EDGE ( 'NONE', *, *, #93, .F. ) ;
#91 = CARTESIAN_POINT ( 'NONE',  ( 0.000000000000000000, 0.000000000000000000, 161.5000000000000000 ) ) ;
#92 = CIRCLE ( 'NONE', #247, 1.500000000000000222 ) ;
#93 = EDGE_CURVE ( 'NONE', #9, #141, #127, .T. ) ;
#94 = CARTESIAN_POINT ( 'NONE',  ( 0.000000000000000000, 0.000000000000000000, 0.000000000000000000 ) ) ;
#95 = CARTESIAN_POINT ( 'NONE',  ( 0.000000000000000000, 0.000000000000000000, 161.5000000000000000 ) ) ;
#96 = APPROVAL_ROLE ( '' ) ;
#97 = CARTESIAN_POINT ( 'NONE',  ( 0.000000000000000000, 0.000000000000000000, 1.500000000000000000 ) ) ;
#98 = APPROVAL ( #267, 'NEURÈENÝ' ) ;
#99 = DIRECTION ( 'NONE',  ( 1.000000000000000000, 0.000000000000000000, 0.000000000000000000 ) ) ;
#100 = ORIENTED_EDGE ( 'NONE', *, *, #84, .F. ) ;
#101 = PERSON_AND_ORGANIZATION ( #4, #207 ) ;
#102 = VERTEX_POINT ( 'NONE', #299 ) ;
#103 = VECTOR ( 'NONE', #252, 1000.000000000000000 ) ;
#104 = DIRECTION ( 'NONE',  ( -1.000000000000000000, 0.000000000000000000, 0.000000000000000000 ) ) ;
#105 = DIRECTION ( 'NONE',  ( -0.000000000000000000, -0.000000000000000000, -1.000000000000000000 ) ) ;
#106 = CALENDAR_DATE ( 2022, 7, 7 ) ;
#107 = SECURITY_CLASSIFICATION ( '', '', #263 ) ;
#108 = PERSON_AND_ORGANIZATION_ROLE ( 'design_owner' ) ;
#109 = TOROIDAL_SURFACE ( 'NONE', #179, 0.8499999999999999778, 0.2000000000000000111 ) ;
#110 = AXIS2_PLACEMENT_3D ( 'NONE', #75, #154, #104 ) ;
#111 = EDGE_CURVE ( 'NONE', #285, #23, #92, .T. ) ;
#112 = CARTESIAN_POINT ( 'NONE',  ( 0.000000000000000000, 0.000000000000000000, 161.5000000000000000 ) ) ;
#113 = DIRECTION ( 'NONE',  ( 1.000000000000000000, 0.000000000000000000, 0.000000000000000000 ) ) ;
#114 = EDGE_LOOP ( 'NONE', ( #266, #79, #129, #18 ) ) ;
#115 = CARTESIAN_POINT ( 'NONE',  ( -0.6500000000000000222, 0.000000000000000000, 161.5000000000000000 ) ) ;
#116 = EDGE_LOOP ( 'NONE', ( #26, #180, #2, #90 ) ) ;
#117 =( NAMED_UNIT ( * ) SI_UNIT ( $, .STERADIAN. ) SOLID_ANGLE_UNIT ( ) );
#118 = EDGE_LOOP ( 'NONE', ( #273, #264, #167, #100 ) ) ;
#119 = DATE_TIME_ROLE ( 'creation_date' ) ;
#120 = DIRECTION ( 'NONE',  ( 1.000000000000000000, 0.000000000000000000, 0.000000000000000000 ) ) ;
#121 = DIRECTION ( 'NONE',  ( 1.000000000000000000, 0.000000000000000000, 0.000000000000000000 ) ) ;
#122 = APPLICATION_PROTOCOL_DEFINITION ( 'international standard', 'config_control_design', 1994, #274 ) ;
#123 = EDGE_LOOP ( 'NONE', ( #76, #56 ) ) ;
#124 = PERSON_AND_ORGANIZATION ( #4, #207 ) ;
#125 = EDGE_CURVE ( 'NONE', #43, #39, #131, .T. ) ;
#126 = APPROVAL_STATUS ( 'not_yet_approved' ) ;
#127 = CIRCLE ( 'NONE', #139, 0.2000000000000000944 ) ;
#128 = CC_DESIGN_APPROVAL ( #98, ( #157 ) ) ;
#129 = ORIENTED_EDGE ( 'NONE', *, *, #190, .T. ) ;
#130 = EDGE_CURVE ( 'NONE', #23, #285, #242, .T. ) ;
#131 = CIRCLE ( 'NONE', #82, 0.1999999999999999833 ) ;
#132 = EDGE_CURVE ( 'NONE', #141, #39, #197, .T. ) ;
#133 = ADVANCED_BREP_SHAPE_REPRESENTATION ( '3a3e', ( #32, #173 ), #10 ) ;
#134 = EDGE_CURVE ( 'NONE', #43, #9, #272, .T. ) ;
#135 = EDGE_CURVE ( 'NONE', #9, #43, #7, .T. ) ;
#136 = AXIS2_PLACEMENT_3D ( 'NONE', #233, #254, #307 ) ;
#137 = CARTESIAN_POINT ( 'NONE',  ( -0.8499999999999999778, 1.040949779275250140E-16, 1.700000000000007061 ) ) ;
#138 = VECTOR ( 'NONE', #105, 1000.000000000000000 ) ;
#139 = AXIS2_PLACEMENT_3D ( 'NONE', #235, #244, #212 ) ;
#140 = PLANE ( 'NONE',  #221 ) ;
#141 = VERTEX_POINT ( 'NONE', #17 ) ;
#142 = DIRECTION ( 'NONE',  ( -1.000000000000000000, 1.224646799147352714E-16, 0.000000000000000000 ) ) ;
#143 = FACE_OUTER_BOUND ( 'NONE', #114, .T. ) ;
#144 = VERTEX_POINT ( 'NONE', #115 ) ;
#145 = SHAPE_DEFINITION_REPRESENTATION ( #158, #133 ) ;
#146 = FACE_OUTER_BOUND ( 'NONE', #249, .T. ) ;
#147 = ORIENTED_EDGE ( 'NONE', *, *, #63, .F. ) ;
#148 = FACE_OUTER_BOUND ( 'NONE', #116, .T. ) ;
#149 = ORIENTED_EDGE ( 'NONE', *, *, #41, .F. ) ;
#150 = FACE_OUTER_BOUND ( 'NONE', #118, .T. ) ;
#151 = LOCAL_TIME ( 12, 39, 58.00000000000000000, #193 ) ;
#152 = DIRECTION ( 'NONE',  ( -1.000000000000000000, 0.000000000000000000, 0.000000000000000000 ) ) ;
#153 = PERSON_AND_ORGANIZATION_ROLE ( 'creator' ) ;
#154 = DIRECTION ( 'NONE',  ( -0.000000000000000000, -0.000000000000000000, -1.000000000000000000 ) ) ;
#155 = PERSON_AND_ORGANIZATION_ROLE ( 'creator' ) ;
#156 = CC_DESIGN_DATE_AND_TIME_ASSIGNMENT ( #186, #214, ( #107 ) ) ;
#157 = PRODUCT_DEFINITION_FORMATION_WITH_SPECIFIED_SOURCE ( 'LIBOVOLNÝ', '', #12, .NOT_KNOWN. ) ;
#158 = PRODUCT_DEFINITION_SHAPE ( 'NONE', 'NONE',  #203 ) ;
#159 = AXIS2_PLACEMENT_3D ( 'NONE', #160, #227, #15 ) ;
#160 = CARTESIAN_POINT ( 'NONE',  ( 0.000000000000000000, 0.000000000000000000, 1.700000000000007061 ) ) ;
#161 = EDGE_LOOP ( 'NONE', ( #290, #222, #302, #149 ) ) ;
#162 = DIRECTION ( 'NONE',  ( 1.000000000000000000, 0.000000000000000000, 0.000000000000000000 ) ) ;
#163 = DIRECTION ( 'NONE',  ( 1.000000000000000000, 0.000000000000000000, 0.000000000000000000 ) ) ;
#164 = EDGE_LOOP ( 'NONE', ( #231, #16, #257, #205 ) ) ;
#165 = DATE_AND_TIME ( #70, #151 ) ;
#166 = PLANE ( 'NONE',  #300 ) ;
#167 = ORIENTED_EDGE ( 'NONE', *, *, #93, .T. ) ;
#168 = DATE_AND_TIME ( #238, #226 ) ;
#169 = DIRECTION ( 'NONE',  ( 0.000000000000000000, 0.000000000000000000, 1.000000000000000000 ) ) ;
#170 = ADVANCED_FACE ( 'NONE', ( #301 ), #187, .T. ) ;
#171 = LINE ( 'NONE', #69, #103 ) ;
#172 = COORDINATED_UNIVERSAL_TIME_OFFSET ( 1, 0, .AHEAD. ) ;
#173 = AXIS2_PLACEMENT_3D ( 'NONE', #194, #291, #265 ) ;
#174 = EDGE_LOOP ( 'NONE', ( #147, #275, #48, #31 ) ) ;
#175 = PERSON_AND_ORGANIZATION ( #4, #207 ) ;
#176 = CC_DESIGN_PERSON_AND_ORGANIZATION_ASSIGNMENT ( #101, #155, ( #157 ) ) ;
#177 = CC_DESIGN_PERSON_AND_ORGANIZATION_ASSIGNMENT ( #53, #153, ( #203 ) ) ;
#178 = AXIS2_PLACEMENT_3D ( 'NONE', #191, #68, #78 ) ;
#179 = AXIS2_PLACEMENT_3D ( 'NONE', #45, #71, #64 ) ;
#180 = ORIENTED_EDGE ( 'NONE', *, *, #125, .T. ) ;
#181 = CARTESIAN_POINT ( 'NONE',  ( 0.000000000000000000, 0.000000000000000000, 1.500000000000000000 ) ) ;
#182 = EDGE_CURVE ( 'NONE', #102, #289, #67, .T. ) ;
#183 = CARTESIAN_POINT ( 'NONE',  ( 0.000000000000000000, 0.000000000000000000, 1.700000000000007061 ) ) ;
#184 = CARTESIAN_POINT ( 'NONE',  ( -1.500000000000000222, 0.000000000000000000, 1.500000000000000000 ) ) ;
#185 = ORIENTED_EDGE ( 'NONE', *, *, #111, .T. ) ;
#186 = DATE_AND_TIME ( #106, #77 ) ;
#187 = CYLINDRICAL_SURFACE ( 'NONE', #225, 1.500000000000000222 ) ;
#188 = DIRECTION ( 'NONE',  ( 0.000000000000000000, 0.000000000000000000, 1.000000000000000000 ) ) ;
#189 = LINE ( 'NONE', #66, #46 ) ;
#190 = EDGE_CURVE ( 'NONE', #23, #289, #284, .T. ) ;
#191 = CARTESIAN_POINT ( 'NONE',  ( 0.000000000000000000, 0.000000000000000000, 161.5000000000000000 ) ) ;
#192 = VERTEX_POINT ( 'NONE', #217 ) ;
#193 = COORDINATED_UNIVERSAL_TIME_OFFSET ( 1, 0, .AHEAD. ) ;
#194 = CARTESIAN_POINT ( 'NONE',  ( 0.000000000000000000, 0.000000000000000000, 0.000000000000000000 ) ) ;
#195 = CARTESIAN_POINT ( 'NONE',  ( -0.6500000000000000222, 0.000000000000000000, 1.700000000000007061 ) ) ;
#196 = PERSON_AND_ORGANIZATION ( #4, #207 ) ;
#197 = CIRCLE ( 'NONE', #296, 0.8499999999999999778 ) ;
#198 = APPLICATION_PROTOCOL_DEFINITION ( 'international standard', 'config_control_design', 1994, #287 ) ;
#199 = ADVANCED_FACE ( 'NONE', ( #72 ), #280, .T. ) ;
#200 = AXIS2_PLACEMENT_3D ( 'NONE', #251, #288, #99 ) ;
#201 = AXIS2_PLACEMENT_3D ( 'NONE', #234, #188, #121 ) ;
#202 = ADVANCED_FACE ( 'NONE', ( #148 ), #21, .F. ) ;
#203 = PRODUCT_DEFINITION ( 'NEZNÁMÝ', '', #157, #86 ) ;
#204 = AXIS2_PLACEMENT_3D ( 'NONE', #183, #278, #250 ) ;
#205 = ORIENTED_EDGE ( 'NONE', *, *, #190, .F. ) ;
#206 = PRODUCT_RELATED_PRODUCT_CATEGORY ( 'detail', '', ( #12 ) ) ;
#207 = ORGANIZATION ( 'NEURÈENÝ', 'NEURÈENÝ', '' ) ;
#208 = FACE_BOUND ( 'NONE', #65, .T. ) ;
#209 = CC_DESIGN_PERSON_AND_ORGANIZATION_ASSIGNMENT ( #124, #239, ( #157 ) ) ;
#210 = DIRECTION ( 'NONE',  ( 0.000000000000000000, 0.000000000000000000, 1.000000000000000000 ) ) ;
#211 = ORIENTED_EDGE ( 'NONE', *, *, #25, .F. ) ;
#212 = DIRECTION ( 'NONE',  ( 0.000000000000000000, 0.000000000000000000, -1.000000000000000000 ) ) ;
#213 = FACE_OUTER_BOUND ( 'NONE', #174, .T. ) ;
#214 = DATE_TIME_ROLE ( 'classification_date' ) ;
#215 = DIRECTION ( 'NONE',  ( 0.000000000000000000, 0.000000000000000000, 1.000000000000000000 ) ) ;
#216 = CARTESIAN_POINT ( 'NONE',  ( -0.8499999999999999778, 1.040949779275250140E-16, 1.500000000000003553 ) ) ;
#217 = CARTESIAN_POINT ( 'NONE',  ( 0.6500000000000000222, 7.960204194457795477E-17, 161.5000000000000000 ) ) ;
#218 = ORIENTED_EDGE ( 'NONE', *, *, #84, .T. ) ;
#219 = APPROVAL_ROLE ( '' ) ;
#220 = CARTESIAN_POINT ( 'NONE',  ( -1.500000000000000222, 0.000000000000000000, 0.000000000000000000 ) ) ;
#221 = AXIS2_PLACEMENT_3D ( 'NONE', #20, #169, #298 ) ;
#222 = ORIENTED_EDGE ( 'NONE', *, *, #63, .T. ) ;
#223 = VECTOR ( 'NONE', #42, 1000.000000000000000 ) ;
#224 = DIRECTION ( 'NONE',  ( 1.000000000000000000, 0.000000000000000000, 0.000000000000000000 ) ) ;
#225 = AXIS2_PLACEMENT_3D ( 'NONE', #294, #236, #47 ) ;
#226 = LOCAL_TIME ( 12, 39, 58.00000000000000000, #172 ) ;
#227 = DIRECTION ( 'NONE',  ( 0.000000000000000000, 0.000000000000000000, 1.000000000000000000 ) ) ;
#228 = EDGE_LOOP ( 'NONE', ( #277, #185 ) ) ;
#229 = CARTESIAN_POINT ( 'NONE',  ( 0.000000000000000000, 0.000000000000000000, 1.500000000000000000 ) ) ;
#230 = ADVANCED_FACE ( 'NONE', ( #143 ), #256, .T. ) ;
#231 = ORIENTED_EDGE ( 'NONE', *, *, #111, .F. ) ;
#232 = DATE_AND_TIME ( #80, #248 ) ;
#233 = CARTESIAN_POINT ( 'NONE',  ( 0.000000000000000000, 0.000000000000000000, 161.5000000000000000 ) ) ;
#234 = CARTESIAN_POINT ( 'NONE',  ( 0.000000000000000000, 0.000000000000000000, 0.000000000000000000 ) ) ;
#235 = CARTESIAN_POINT ( 'NONE',  ( 0.8499999999999999778, 0.000000000000000000, 1.700000000000007061 ) ) ;
#236 = DIRECTION ( 'NONE',  ( -0.000000000000000000, -0.000000000000000000, -1.000000000000000000 ) ) ;
#237 = LINE ( 'NONE', #5, #138 ) ;
#238 = CALENDAR_DATE ( 2022, 7, 7 ) ;
#239 = PERSON_AND_ORGANIZATION_ROLE ( 'design_supplier' ) ;
#240 = APPROVAL ( #126, 'NEURÈENÝ' ) ;
#241 = AXIS2_PLACEMENT_3D ( 'NONE', #94, #89, #163 ) ;
#242 = CIRCLE ( 'NONE', #51, 1.500000000000000222 ) ;
#243 = LOCAL_TIME ( 12, 39, 58.00000000000000000, #27 ) ;
#244 = DIRECTION ( 'NONE',  ( 0.000000000000000000, -1.000000000000000000, 0.000000000000000000 ) ) ;
#245 = AXIS2_PLACEMENT_3D ( 'NONE', #91, #210, #162 ) ;
#246 = DIRECTION ( 'NONE',  ( 0.000000000000000000, 0.000000000000000000, 1.000000000000000000 ) ) ;
#247 = AXIS2_PLACEMENT_3D ( 'NONE', #14, #246, #36 ) ;
#248 = LOCAL_TIME ( 12, 39, 58.00000000000000000, #49 ) ;
#249 = EDGE_LOOP ( 'NONE', ( #211, #35 ) ) ;
#250 = DIRECTION ( 'NONE',  ( 1.000000000000000000, 0.000000000000000000, 0.000000000000000000 ) ) ;
#251 = CARTESIAN_POINT ( 'NONE',  ( 0.000000000000000000, 0.000000000000000000, 1.700000000000007061 ) ) ;
#252 = DIRECTION ( 'NONE',  ( -0.000000000000000000, -0.000000000000000000, -1.000000000000000000 ) ) ;
#253 = APPROVAL_STATUS ( 'not_yet_approved' ) ;
#254 = DIRECTION ( 'NONE',  ( 0.000000000000000000, 0.000000000000000000, 1.000000000000000000 ) ) ;
#255 = CC_DESIGN_DATE_AND_TIME_ASSIGNMENT ( #232, #119, ( #203 ) ) ;
#256 = CYLINDRICAL_SURFACE ( 'NONE', #110, 1.500000000000000222 ) ;
#257 = ORIENTED_EDGE ( 'NONE', *, *, #182, .T. ) ;
#258 = CIRCLE ( 'NONE', #33, 0.8499999999999999778 ) ;
#259 = PERSON_AND_ORGANIZATION_ROLE ( 'classification_officer' ) ;
#260 = CARTESIAN_POINT ( 'NONE',  ( 0.000000000000000000, 0.000000000000000000, 1.500000000000000000 ) ) ;
#261 =( NAMED_UNIT ( * ) PLANE_ANGLE_UNIT ( ) SI_UNIT ( $, .RADIAN. ) );
#262 = CYLINDRICAL_SURFACE ( 'NONE', #270, 0.6500000000000000222 ) ;
#263 = SECURITY_CLASSIFICATION_LEVEL ( 'unclassified' ) ;
#264 = ORIENTED_EDGE ( 'NONE', *, *, #135, .F. ) ;
#265 = DIRECTION ( 'NONE',  ( 1.000000000000000000, 0.000000000000000000, 0.000000000000000000 ) ) ;
#266 = ORIENTED_EDGE ( 'NONE', *, *, #13, .F. ) ;
#267 = APPROVAL_STATUS ( 'not_yet_approved' ) ;
#268 = CIRCLE ( 'NONE', #136, 0.6500000000000000222 ) ;
#269 = CC_DESIGN_SECURITY_CLASSIFICATION ( #107, ( #157 ) ) ;
#270 = AXIS2_PLACEMENT_3D ( 'NONE', #95, #73, #152 ) ;
#271 = CIRCLE ( 'NONE', #201, 1.500000000000000222 ) ;
#272 = CIRCLE ( 'NONE', #159, 0.6500000000000000222 ) ;
#273 = ORIENTED_EDGE ( 'NONE', *, *, #125, .F. ) ;
#274 = APPLICATION_CONTEXT ( 'configuration controlled 3d designs of mechanical parts and assemblies' ) ;
#275 = ORIENTED_EDGE ( 'NONE', *, *, #57, .F. ) ;
#276 = DIRECTION ( 'NONE',  ( -0.000000000000000000, -0.000000000000000000, -1.000000000000000000 ) ) ;
#277 = ORIENTED_EDGE ( 'NONE', *, *, #130, .T. ) ;
#278 = DIRECTION ( 'NONE',  ( 0.000000000000000000, 0.000000000000000000, 1.000000000000000000 ) ) ;
#279 = CC_DESIGN_APPROVAL ( #61, ( #203 ) ) ;
#280 = PLANE ( 'NONE',  #178 ) ;
#281 = CARTESIAN_POINT ( 'NONE',  ( 0.6500000000000000222, 7.960204194457795477E-17, 1.700000000000007061 ) ) ;
#282 = CALENDAR_DATE ( 2022, 7, 7 ) ;
#283 = DIRECTION ( 'NONE',  ( 1.000000000000000000, 0.000000000000000000, -0.000000000000000000 ) ) ;
#284 = LINE ( 'NONE', #184, #223 ) ;
#285 = VERTEX_POINT ( 'NONE', #304 ) ;
#286 = DIRECTION ( 'NONE',  ( -0.000000000000000000, -0.000000000000000000, -1.000000000000000000 ) ) ;
#287 = APPLICATION_CONTEXT ( 'configuration controlled 3d designs of mechanical parts and assemblies' ) ;
#288 = DIRECTION ( 'NONE',  ( 0.000000000000000000, 0.000000000000000000, 1.000000000000000000 ) ) ;
#289 = VERTEX_POINT ( 'NONE', #220 ) ;
#290 = ORIENTED_EDGE ( 'NONE', *, *, #58, .F. ) ;
#291 = DIRECTION ( 'NONE',  ( 0.000000000000000000, 0.000000000000000000, 1.000000000000000000 ) ) ;
#292 = FACE_OUTER_BOUND ( 'NONE', #161, .T. ) ;
#293 = APPROVAL_DATE_TIME ( #168, #61 ) ;
#294 = CARTESIAN_POINT ( 'NONE',  ( 0.000000000000000000, 0.000000000000000000, 1.500000000000000000 ) ) ;
#295 = APPROVAL_PERSON_ORGANIZATION ( #30, #240, #306 ) ;
#296 = AXIS2_PLACEMENT_3D ( 'NONE', #181, #276, #113 ) ;
#297 = APPROVAL_PERSON_ORGANIZATION ( #196, #98, #96 ) ;
#298 = DIRECTION ( 'NONE',  ( 1.000000000000000000, 0.000000000000000000, -0.000000000000000000 ) ) ;
#299 = CARTESIAN_POINT ( 'NONE',  ( 1.500000000000000222, 1.836970198721030181E-16, 0.000000000000000000 ) ) ;
#300 = AXIS2_PLACEMENT_3D ( 'NONE', #97, #37, #283 ) ;
#301 = FACE_OUTER_BOUND ( 'NONE', #164, .T. ) ;
#302 = ORIENTED_EDGE ( 'NONE', *, *, #135, .T. ) ;
#303 = DIRECTION ( 'NONE',  ( -0.000000000000000000, -0.000000000000000000, -1.000000000000000000 ) ) ;
#304 = CARTESIAN_POINT ( 'NONE',  ( 1.500000000000000222, 1.836970198721030181E-16, 1.500000000000000000 ) ) ;
#305 = ORIENTED_EDGE ( 'NONE', *, *, #132, .T. ) ;
#306 = APPROVAL_ROLE ( '' ) ;
#307 = DIRECTION ( 'NONE',  ( 1.000000000000000000, 0.000000000000000000, 0.000000000000000000 ) ) ;
ENDSEC;
END-ISO-10303-21;
