ISO-10303-21;
HEADER;
FILE_DESCRIPTION (( 'STEP AP203' ),
    '1' );
FILE_NAME ('9839.STEP',
    '2023-02-12T11:26:02',
    ( '' ),
    ( '' ),
    'SwSTEP 2.0',
    'SolidWorks 2019',
    '' );
FILE_SCHEMA (( 'CONFIG_CONTROL_DESIGN' ));
ENDSEC;

DATA;
#1 = APPROVAL_STATUS ( 'not_yet_approved' ) ;
#2 = ORIENTED_EDGE ( 'NONE', *, *, #12, .F. ) ;
#3 = CIRCLE ( 'NONE', #192, 8.000000000000000000 ) ;
#4 = EDGE_CURVE ( 'NONE', #77, #185, #166, .T. ) ;
#5 = ORIENTED_EDGE ( 'NONE', *, *, #40, .F. ) ;
#6 = DIRECTION ( 'NONE',  ( 1.000000000000000000, 0.000000000000000000, -0.000000000000000000 ) ) ;
#7 = LOCAL_TIME ( 12, 26, 2.000000000000000000, #249 ) ;
#8 = DIRECTION ( 'NONE',  ( 0.000000000000000000, 0.000000000000000000, 1.000000000000000000 ) ) ;
#9 = APPROVAL ( #62, 'NEURÈENÝ' ) ;
#10 = DIRECTION ( 'NONE',  ( 1.000000000000000000, 0.000000000000000000, 0.000000000000000000 ) ) ;
#11 = DIRECTION ( 'NONE',  ( 1.000000000000000000, 0.000000000000000000, 0.000000000000000000 ) ) ;
#12 = EDGE_CURVE ( 'NONE', #200, #71, #43, .T. ) ;
#13 = CARTESIAN_POINT ( 'NONE',  ( -5.000000000000000888, 0.000000000000000000, 5.000000000000000000 ) ) ;
#14 = VECTOR ( 'NONE', #67, 1000.000000000000000 ) ;
#15 = DIRECTION ( 'NONE',  ( 0.000000000000000000, 0.000000000000000000, 1.000000000000000000 ) ) ;
#16 = EDGE_LOOP ( 'NONE', ( #2, #87, #123, #204 ) ) ;
#17 = APPROVAL_DATE_TIME ( #252, #168 ) ;
#18 = ADVANCED_FACE ( 'NONE', ( #127 ), #211, .T. ) ;
#19 = EDGE_LOOP ( 'NONE', ( #230, #122, #236, #96 ) ) ;
#20 = CYLINDRICAL_SURFACE ( 'NONE', #149, 5.000000000000000888 ) ;
#21 = COORDINATED_UNIVERSAL_TIME_OFFSET ( 1, 0, .AHEAD. ) ;
#22 = AXIS2_PLACEMENT_3D ( 'NONE', #25, #145, #167 ) ;
#23 = COORDINATED_UNIVERSAL_TIME_OFFSET ( 1, 0, .AHEAD. ) ;
#24 = DIRECTION ( 'NONE',  ( 1.000000000000000000, 0.000000000000000000, 0.000000000000000000 ) ) ;
#25 = CARTESIAN_POINT ( 'NONE',  ( 0.000000000000000000, 0.000000000000000000, 5.000000000000000000 ) ) ;
#26 = APPROVAL_PERSON_ORGANIZATION ( #148, #227, #111 ) ;
#27 = DIRECTION ( 'NONE',  ( -1.000000000000000000, 0.000000000000000000, 0.000000000000000000 ) ) ;
#28 = CARTESIAN_POINT ( 'NONE',  ( 0.000000000000000000, 0.000000000000000000, 5.000000000000000000 ) ) ;
#29 = FACE_OUTER_BOUND ( 'NONE', #19, .T. ) ;
#30 =( GEOMETRIC_REPRESENTATION_CONTEXT ( 3 ) GLOBAL_UNCERTAINTY_ASSIGNED_CONTEXT ( ( #157 ) ) GLOBAL_UNIT_ASSIGNED_CONTEXT ( ( #73, #176, #174 ) ) REPRESENTATION_CONTEXT ( 'NONE', 'WORKASPACE' ) );
#31 = DIRECTION ( 'NONE',  ( 0.000000000000000000, 0.000000000000000000, 1.000000000000000000 ) ) ;
#32 = DIRECTION ( 'NONE',  ( 1.000000000000000000, 0.000000000000000000, 0.000000000000000000 ) ) ;
#33 = DIRECTION ( 'NONE',  ( 1.000000000000000000, 0.000000000000000000, -0.000000000000000000 ) ) ;
#34 = AXIS2_PLACEMENT_3D ( 'NONE', #28, #147, #237 ) ;
#35 = LINE ( 'NONE', #246, #133 ) ;
#36 = CARTESIAN_POINT ( 'NONE',  ( 5.000000000000000888, 6.123233995736766282E-16, 1000.000000000000000 ) ) ;
#37 = ORIENTED_EDGE ( 'NONE', *, *, #144, .F. ) ;
#38 = APPROVAL_ROLE ( '' ) ;
#39 = EDGE_LOOP ( 'NONE', ( #178, #220, #90, #115 ) ) ;
#40 = EDGE_CURVE ( 'NONE', #185, #77, #42, .T. ) ;
#41 = DIRECTION ( 'NONE',  ( -1.000000000000000000, 0.000000000000000000, 0.000000000000000000 ) ) ;
#42 = CIRCLE ( 'NONE', #47, 5.000000000000000888 ) ;
#43 = LINE ( 'NONE', #105, #14 ) ;
#44 = AXIS2_PLACEMENT_3D ( 'NONE', #95, #8, #33 ) ;
#45 = EDGE_LOOP ( 'NONE', ( #101, #106 ) ) ;
#46 = APPLICATION_CONTEXT ( 'configuration controlled 3d designs of mechanical parts and assemblies' ) ;
#47 = AXIS2_PLACEMENT_3D ( 'NONE', #243, #31, #10 ) ;
#48 = APPROVAL_DATE_TIME ( #134, #227 ) ;
#49 = CC_DESIGN_SECURITY_CLASSIFICATION ( #187, ( #250 ) ) ;
#50 = DIRECTION ( 'NONE',  ( 0.000000000000000000, 0.000000000000000000, 1.000000000000000000 ) ) ;
#51 = CARTESIAN_POINT ( 'NONE',  ( 0.000000000000000000, 0.000000000000000000, 0.000000000000000000 ) ) ;
#52 = CARTESIAN_POINT ( 'NONE',  ( 5.000000000000000888, 6.123233995736766282E-16, 5.000000000000000000 ) ) ;
#53 = DIRECTION ( 'NONE',  ( 0.000000000000000000, 0.000000000000000000, 1.000000000000000000 ) ) ;
#54 = CARTESIAN_POINT ( 'NONE',  ( 0.000000000000000000, 0.000000000000000000, 0.000000000000000000 ) ) ;
#55 = CIRCLE ( 'NONE', #140, 8.000000000000000000 ) ;
#56 = DESIGN_CONTEXT ( 'detailed design', #255, 'design' ) ;
#57 = PRODUCT_DEFINITION ( 'NEZNÁMÝ', '', #250, #56 ) ;
#58 = CARTESIAN_POINT ( 'NONE',  ( 0.000000000000000000, 0.000000000000000000, 5.000000000000000000 ) ) ;
#59 = FACE_OUTER_BOUND ( 'NONE', #160, .T. ) ;
#60 = PERSON_AND_ORGANIZATION ( #117, #244 ) ;
#61 = EDGE_CURVE ( 'NONE', #200, #65, #55, .T. ) ;
#62 = APPROVAL_STATUS ( 'not_yet_approved' ) ;
#63 = LOCAL_TIME ( 12, 26, 2.000000000000000000, #156 ) ;
#64 = CALENDAR_DATE ( 2023, 12, 2 ) ;
#65 = VERTEX_POINT ( 'NONE', #130 ) ;
#66 = CYLINDRICAL_SURFACE ( 'NONE', #22, 8.000000000000000000 ) ;
#67 = DIRECTION ( 'NONE',  ( -0.000000000000000000, -0.000000000000000000, -1.000000000000000000 ) ) ;
#68 = CC_DESIGN_PERSON_AND_ORGANIZATION_ASSIGNMENT ( #228, #194, ( #183 ) ) ;
#69 = DIRECTION ( 'NONE',  ( -1.000000000000000000, 0.000000000000000000, 0.000000000000000000 ) ) ;
#70 = AXIS2_PLACEMENT_3D ( 'NONE', #113, #212, #247 ) ;
#71 = VERTEX_POINT ( 'NONE', #153 ) ;
#72 = APPROVAL_ROLE ( '' ) ;
#73 =( LENGTH_UNIT ( ) NAMED_UNIT ( * ) SI_UNIT ( .MILLI., .METRE. ) );
#74 = AXIS2_PLACEMENT_3D ( 'NONE', #121, #188, #69 ) ;
#75 = MANIFOLD_SOLID_BREP ( 'Pøidat vysunutím3', #202 ) ;
#76 = APPLICATION_PROTOCOL_DEFINITION ( 'international standard', 'config_control_design', 1994, #46 ) ;
#77 = VERTEX_POINT ( 'NONE', #52 ) ;
#78 = FACE_BOUND ( 'NONE', #253, .T. ) ;
#79 = DATE_TIME_ROLE ( 'classification_date' ) ;
#80 = CC_DESIGN_DATE_AND_TIME_ASSIGNMENT ( #98, #233, ( #57 ) ) ;
#81 = SECURITY_CLASSIFICATION_LEVEL ( 'unclassified' ) ;
#82 = CC_DESIGN_APPROVAL ( #227, ( #57 ) ) ;
#83 = DATE_AND_TIME ( #235, #138 ) ;
#84 = ORIENTED_EDGE ( 'NONE', *, *, #116, .T. ) ;
#85 = AXIS2_PLACEMENT_3D ( 'NONE', #51, #210, #32 ) ;
#86 = APPROVAL_DATE_TIME ( #83, #9 ) ;
#87 = ORIENTED_EDGE ( 'NONE', *, *, #245, .F. ) ;
#88 = ADVANCED_FACE ( 'NONE', ( #110 ), #131, .F. ) ;
#89 = CC_DESIGN_PERSON_AND_ORGANIZATION_ASSIGNMENT ( #162, #218, ( #187 ) ) ;
#90 = ORIENTED_EDGE ( 'NONE', *, *, #144, .T. ) ;
#91 = CC_DESIGN_APPROVAL ( #168, ( #250 ) ) ;
#92 = PERSON_AND_ORGANIZATION ( #117, #244 ) ;
#93 = CARTESIAN_POINT ( 'NONE',  ( 0.000000000000000000, 0.000000000000000000, 5.000000000000000000 ) ) ;
#94 = DIRECTION ( 'NONE',  ( 1.000000000000000000, 0.000000000000000000, 0.000000000000000000 ) ) ;
#95 = CARTESIAN_POINT ( 'NONE',  ( 0.000000000000000000, 0.000000000000000000, 1000.000000000000000 ) ) ;
#96 = ORIENTED_EDGE ( 'NONE', *, *, #170, .F. ) ;
#97 = EDGE_LOOP ( 'NONE', ( #216, #234, #125, #37 ) ) ;
#98 = DATE_AND_TIME ( #180, #151 ) ;
#99 = AXIS2_PLACEMENT_3D ( 'NONE', #126, #205, #27 ) ;
#100 = ADVANCED_FACE ( 'NONE', ( #229 ), #20, .T. ) ;
#101 = ORIENTED_EDGE ( 'NONE', *, *, #161, .F. ) ;
#102 = CC_DESIGN_DATE_AND_TIME_ASSIGNMENT ( #118, #79, ( #187 ) ) ;
#103 = AXIS2_PLACEMENT_3D ( 'NONE', #206, #142, #24 ) ;
#104 = ADVANCED_FACE ( 'NONE', ( #78, #59 ), #135, .T. ) ;
#105 = CARTESIAN_POINT ( 'NONE',  ( 8.000000000000000000, 9.797174393178825657E-16, 5.000000000000000000 ) ) ;
#106 = ORIENTED_EDGE ( 'NONE', *, *, #195, .F. ) ;
#107 = DIRECTION ( 'NONE',  ( 1.000000000000000000, 0.000000000000000000, 0.000000000000000000 ) ) ;
#108 = CIRCLE ( 'NONE', #232, 5.000000000000000888 ) ;
#109 = CARTESIAN_POINT ( 'NONE',  ( 5.000000000000000888, 6.123233995736766282E-16, 1000.000000000000000 ) ) ;
#110 = FACE_OUTER_BOUND ( 'NONE', #45, .T. ) ;
#111 = APPROVAL_ROLE ( '' ) ;
#112 = ADVANCED_FACE ( 'NONE', ( #143 ), #120, .T. ) ;
#113 = CARTESIAN_POINT ( 'NONE',  ( 0.000000000000000000, 0.000000000000000000, 0.000000000000000000 ) ) ;
#114 = CARTESIAN_POINT ( 'NONE',  ( -8.000000000000000000, 0.000000000000000000, 0.000000000000000000 ) ) ;
#115 = ORIENTED_EDGE ( 'NONE', *, *, #40, .T. ) ;
#116 = EDGE_CURVE ( 'NONE', #201, #141, #186, .T. ) ;
#117 = PERSON ( 'NEURÈENÝ', 'NEURÈENÝ', 'NEURÈENÝ', ('NEURÈENÝ'), ('NEURÈENÝ'), ('NEURÈENÝ') ) ;
#118 = DATE_AND_TIME ( #215, #7 ) ;
#119 = CC_DESIGN_PERSON_AND_ORGANIZATION_ASSIGNMENT ( #60, #177, ( #250 ) ) ;
#120 = CYLINDRICAL_SURFACE ( 'NONE', #74, 8.000000000000000000 ) ;
#121 = CARTESIAN_POINT ( 'NONE',  ( 0.000000000000000000, 0.000000000000000000, 5.000000000000000000 ) ) ;
#122 = ORIENTED_EDGE ( 'NONE', *, *, #12, .T. ) ;
#123 = ORIENTED_EDGE ( 'NONE', *, *, #170, .T. ) ;
#124 = CYLINDRICAL_SURFACE ( 'NONE', #99, 5.000000000000000888 ) ;
#125 = ORIENTED_EDGE ( 'NONE', *, *, #4, .T. ) ;
#126 = CARTESIAN_POINT ( 'NONE',  ( 0.000000000000000000, 0.000000000000000000, 1000.000000000000000 ) ) ;
#127 = FACE_OUTER_BOUND ( 'NONE', #251, .T. ) ;
#128 = CARTESIAN_POINT ( 'NONE',  ( -5.000000000000000888, 0.000000000000000000, 1000.000000000000000 ) ) ;
#129 = MECHANICAL_CONTEXT ( 'NONE', #46, 'mechanical' ) ;
#130 = CARTESIAN_POINT ( 'NONE',  ( -8.000000000000000000, 0.000000000000000000, 5.000000000000000000 ) ) ;
#131 = PLANE ( 'NONE',  #70 ) ;
#132 = APPLICATION_PROTOCOL_DEFINITION ( 'international standard', 'config_control_design', 1994, #255 ) ;
#133 = VECTOR ( 'NONE', #172, 1000.000000000000000 ) ;
#134 = DATE_AND_TIME ( #196, #63 ) ;
#135 = PLANE ( 'NONE',  #197 ) ;
#136 = PERSON_AND_ORGANIZATION_ROLE ( 'design_supplier' ) ;
#137 = VECTOR ( 'NONE', #242, 1000.000000000000000 ) ;
#138 = LOCAL_TIME ( 12, 26, 2.000000000000000000, #23 ) ;
#139 = PERSON_AND_ORGANIZATION ( #117, #244 ) ;
#140 = AXIS2_PLACEMENT_3D ( 'NONE', #93, #50, #225 ) ;
#141 = VERTEX_POINT ( 'NONE', #128 ) ;
#142 = DIRECTION ( 'NONE',  ( 0.000000000000000000, 0.000000000000000000, 1.000000000000000000 ) ) ;
#143 = FACE_OUTER_BOUND ( 'NONE', #16, .T. ) ;
#144 = EDGE_CURVE ( 'NONE', #141, #185, #239, .T. ) ;
#145 = DIRECTION ( 'NONE',  ( -0.000000000000000000, -0.000000000000000000, -1.000000000000000000 ) ) ;
#146 = ADVANCED_FACE ( 'NONE', ( #29 ), #66, .T. ) ;
#147 = DIRECTION ( 'NONE',  ( 0.000000000000000000, 0.000000000000000000, 1.000000000000000000 ) ) ;
#148 = PERSON_AND_ORGANIZATION ( #117, #244 ) ;
#149 = AXIS2_PLACEMENT_3D ( 'NONE', #214, #158, #41 ) ;
#150 = DIRECTION ( 'NONE',  ( 1.000000000000000000, 0.000000000000000000, 0.000000000000000000 ) ) ;
#151 = LOCAL_TIME ( 12, 26, 2.000000000000000000, #21 ) ;
#152 = ADVANCED_FACE ( 'NONE', ( #223 ), #124, .T. ) ;
#153 = CARTESIAN_POINT ( 'NONE',  ( 8.000000000000000000, 9.797174393178825657E-16, 0.000000000000000000 ) ) ;
#154 = DIRECTION ( 'NONE',  ( -0.000000000000000000, -0.000000000000000000, -1.000000000000000000 ) ) ;
#155 = CARTESIAN_POINT ( 'NONE',  ( 0.000000000000000000, 0.000000000000000000, 5.000000000000000000 ) ) ;
#156 = COORDINATED_UNIVERSAL_TIME_OFFSET ( 1, 0, .AHEAD. ) ;
#157 = UNCERTAINTY_MEASURE_WITH_UNIT (LENGTH_MEASURE( 1.000000000000000082E-05 ), #73, 'distance_accuracy_value', 'NONE');
#158 = DIRECTION ( 'NONE',  ( -0.000000000000000000, -0.000000000000000000, -1.000000000000000000 ) ) ;
#159 = PERSON_AND_ORGANIZATION ( #117, #244 ) ;
#160 = EDGE_LOOP ( 'NONE', ( #254, #198 ) ) ;
#161 = EDGE_CURVE ( 'NONE', #182, #71, #3, .T. ) ;
#162 = PERSON_AND_ORGANIZATION ( #117, #244 ) ;
#163 = CC_DESIGN_PERSON_AND_ORGANIZATION_ASSIGNMENT ( #139, #136, ( #250 ) ) ;
#164 = COORDINATED_UNIVERSAL_TIME_OFFSET ( 1, 0, .AHEAD. ) ;
#165 = PRODUCT_DEFINITION_SHAPE ( 'NONE', 'NONE',  #57 ) ;
#166 = CIRCLE ( 'NONE', #34, 5.000000000000000888 ) ;
#167 = DIRECTION ( 'NONE',  ( -1.000000000000000000, 0.000000000000000000, 0.000000000000000000 ) ) ;
#168 = APPROVAL ( #1, 'NEURÈENÝ' ) ;
#169 = ORIENTED_EDGE ( 'NONE', *, *, #181, .T. ) ;
#170 = EDGE_CURVE ( 'NONE', #65, #182, #35, .T. ) ;
#171 = AXIS2_PLACEMENT_3D ( 'NONE', #58, #15, #150 ) ;
#172 = DIRECTION ( 'NONE',  ( -0.000000000000000000, -0.000000000000000000, -1.000000000000000000 ) ) ;
#173 = LINE ( 'NONE', #109, #175 ) ;
#174 =( NAMED_UNIT ( * ) SI_UNIT ( $, .STERADIAN. ) SOLID_ANGLE_UNIT ( ) );
#175 = VECTOR ( 'NONE', #154, 1000.000000000000000 ) ;
#176 =( NAMED_UNIT ( * ) PLANE_ANGLE_UNIT ( ) SI_UNIT ( $, .RADIAN. ) );
#177 = PERSON_AND_ORGANIZATION_ROLE ( 'creator' ) ;
#178 = ORIENTED_EDGE ( 'NONE', *, *, #222, .F. ) ;
#179 = LOCAL_TIME ( 12, 26, 2.000000000000000000, #164 ) ;
#180 = CALENDAR_DATE ( 2023, 12, 2 ) ;
#181 = EDGE_CURVE ( 'NONE', #141, #201, #108, .T. ) ;
#182 = VERTEX_POINT ( 'NONE', #114 ) ;
#183 = PRODUCT ( '9839', '9839', '', ( #129 ) ) ;
#184 = DIRECTION ( 'NONE',  ( 0.000000000000000000, 0.000000000000000000, 1.000000000000000000 ) ) ;
#185 = VERTEX_POINT ( 'NONE', #13 ) ;
#186 = CIRCLE ( 'NONE', #103, 5.000000000000000888 ) ;
#187 = SECURITY_CLASSIFICATION ( '', '', #81 ) ;
#188 = DIRECTION ( 'NONE',  ( -0.000000000000000000, -0.000000000000000000, -1.000000000000000000 ) ) ;
#189 = SHAPE_DEFINITION_REPRESENTATION ( #165, #238 ) ;
#190 = CARTESIAN_POINT ( 'NONE',  ( 0.000000000000000000, 0.000000000000000000, 0.000000000000000000 ) ) ;
#191 = CC_DESIGN_PERSON_AND_ORGANIZATION_ASSIGNMENT ( #92, #193, ( #57 ) ) ;
#192 = AXIS2_PLACEMENT_3D ( 'NONE', #190, #208, #107 ) ;
#193 = PERSON_AND_ORGANIZATION_ROLE ( 'creator' ) ;
#194 = PERSON_AND_ORGANIZATION_ROLE ( 'design_owner' ) ;
#195 = EDGE_CURVE ( 'NONE', #71, #182, #199, .T. ) ;
#196 = CALENDAR_DATE ( 2023, 12, 2 ) ;
#197 = AXIS2_PLACEMENT_3D ( 'NONE', #155, #184, #6 ) ;
#198 = ORIENTED_EDGE ( 'NONE', *, *, #61, .T. ) ;
#199 = CIRCLE ( 'NONE', #217, 8.000000000000000000 ) ;
#200 = VERTEX_POINT ( 'NONE', #226 ) ;
#201 = VERTEX_POINT ( 'NONE', #36 ) ;
#202 = CLOSED_SHELL ( 'NONE', ( #152, #146, #112, #104, #88, #100, #18 ) ) ;
#203 = CC_DESIGN_APPROVAL ( #9, ( #187 ) ) ;
#204 = ORIENTED_EDGE ( 'NONE', *, *, #161, .T. ) ;
#205 = DIRECTION ( 'NONE',  ( -0.000000000000000000, -0.000000000000000000, -1.000000000000000000 ) ) ;
#206 = CARTESIAN_POINT ( 'NONE',  ( 0.000000000000000000, 0.000000000000000000, 1000.000000000000000 ) ) ;
#207 = PRODUCT_RELATED_PRODUCT_CATEGORY ( 'detail', '', ( #183 ) ) ;
#208 = DIRECTION ( 'NONE',  ( 0.000000000000000000, 0.000000000000000000, 1.000000000000000000 ) ) ;
#209 = CARTESIAN_POINT ( 'NONE',  ( 0.000000000000000000, 0.000000000000000000, 1000.000000000000000 ) ) ;
#210 = DIRECTION ( 'NONE',  ( 0.000000000000000000, 0.000000000000000000, 1.000000000000000000 ) ) ;
#211 = PLANE ( 'NONE',  #44 ) ;
#212 = DIRECTION ( 'NONE',  ( 0.000000000000000000, 0.000000000000000000, 1.000000000000000000 ) ) ;
#213 = DIRECTION ( 'NONE',  ( 0.000000000000000000, 0.000000000000000000, 1.000000000000000000 ) ) ;
#214 = CARTESIAN_POINT ( 'NONE',  ( 0.000000000000000000, 0.000000000000000000, 1000.000000000000000 ) ) ;
#215 = CALENDAR_DATE ( 2023, 12, 2 ) ;
#216 = ORIENTED_EDGE ( 'NONE', *, *, #116, .F. ) ;
#217 = AXIS2_PLACEMENT_3D ( 'NONE', #54, #213, #11 ) ;
#218 = PERSON_AND_ORGANIZATION_ROLE ( 'classification_officer' ) ;
#219 = APPROVAL_PERSON_ORGANIZATION ( #231, #168, #38 ) ;
#220 = ORIENTED_EDGE ( 'NONE', *, *, #181, .F. ) ;
#221 = CARTESIAN_POINT ( 'NONE',  ( -5.000000000000000888, 0.000000000000000000, 1000.000000000000000 ) ) ;
#222 = EDGE_CURVE ( 'NONE', #201, #77, #173, .T. ) ;
#223 = FACE_OUTER_BOUND ( 'NONE', #97, .T. ) ;
#224 = APPROVAL_PERSON_ORGANIZATION ( #159, #9, #72 ) ;
#225 = DIRECTION ( 'NONE',  ( 1.000000000000000000, 0.000000000000000000, 0.000000000000000000 ) ) ;
#226 = CARTESIAN_POINT ( 'NONE',  ( 8.000000000000000000, 9.797174393178825657E-16, 5.000000000000000000 ) ) ;
#227 = APPROVAL ( #248, 'NEURÈENÝ' ) ;
#228 = PERSON_AND_ORGANIZATION ( #117, #244 ) ;
#229 = FACE_OUTER_BOUND ( 'NONE', #39, .T. ) ;
#230 = ORIENTED_EDGE ( 'NONE', *, *, #61, .F. ) ;
#231 = PERSON_AND_ORGANIZATION ( #117, #244 ) ;
#232 = AXIS2_PLACEMENT_3D ( 'NONE', #209, #53, #94 ) ;
#233 = DATE_TIME_ROLE ( 'creation_date' ) ;
#234 = ORIENTED_EDGE ( 'NONE', *, *, #222, .T. ) ;
#235 = CALENDAR_DATE ( 2023, 12, 2 ) ;
#236 = ORIENTED_EDGE ( 'NONE', *, *, #195, .T. ) ;
#237 = DIRECTION ( 'NONE',  ( 1.000000000000000000, 0.000000000000000000, 0.000000000000000000 ) ) ;
#238 = ADVANCED_BREP_SHAPE_REPRESENTATION ( '9839', ( #75, #85 ), #30 ) ;
#239 = LINE ( 'NONE', #221, #137 ) ;
#240 = CIRCLE ( 'NONE', #171, 8.000000000000000000 ) ;
#241 = ORIENTED_EDGE ( 'NONE', *, *, #4, .F. ) ;
#242 = DIRECTION ( 'NONE',  ( -0.000000000000000000, -0.000000000000000000, -1.000000000000000000 ) ) ;
#243 = CARTESIAN_POINT ( 'NONE',  ( 0.000000000000000000, 0.000000000000000000, 5.000000000000000000 ) ) ;
#244 = ORGANIZATION ( 'NEURÈENÝ', 'NEURÈENÝ', '' ) ;
#245 = EDGE_CURVE ( 'NONE', #65, #200, #240, .T. ) ;
#246 = CARTESIAN_POINT ( 'NONE',  ( -8.000000000000000000, 0.000000000000000000, 5.000000000000000000 ) ) ;
#247 = DIRECTION ( 'NONE',  ( 1.000000000000000000, 0.000000000000000000, -0.000000000000000000 ) ) ;
#248 = APPROVAL_STATUS ( 'not_yet_approved' ) ;
#249 = COORDINATED_UNIVERSAL_TIME_OFFSET ( 1, 0, .AHEAD. ) ;
#250 = PRODUCT_DEFINITION_FORMATION_WITH_SPECIFIED_SOURCE ( 'LIBOVOLNÝ', '', #183, .NOT_KNOWN. ) ;
#251 = EDGE_LOOP ( 'NONE', ( #169, #84 ) ) ;
#252 = DATE_AND_TIME ( #64, #179 ) ;
#253 = EDGE_LOOP ( 'NONE', ( #5, #241 ) ) ;
#254 = ORIENTED_EDGE ( 'NONE', *, *, #245, .T. ) ;
#255 = APPLICATION_CONTEXT ( 'configuration controlled 3d designs of mechanical parts and assemblies' ) ;
ENDSEC;
END-ISO-10303-21;
