ISO-10303-21;
HEADER;
FILE_DESCRIPTION (( 'STEP AP203' ),
    '1' );
FILE_NAME ('4c23.STEP',
    '2022-07-07T10:40:06',
    ( '' ),
    ( '' ),
    'SwSTEP 2.0',
    'SolidWorks 2019',
    '' );
FILE_SCHEMA (( 'CONFIG_CONTROL_DESIGN' ));
ENDSEC;

DATA;
#1 = ADVANCED_FACE ( 'NONE', ( #230 ), #161, .T. ) ;
#2 = DIRECTION ( 'NONE',  ( 0.000000000000000000, 0.000000000000000000, 1.000000000000000000 ) ) ;
#3 = CARTESIAN_POINT ( 'NONE',  ( 0.000000000000000000, 0.000000000000000000, 1.500000000000000000 ) ) ;
#4 = CARTESIAN_POINT ( 'NONE',  ( -0.8499999999999999778, 1.040949779275250140E-16, 1.500000000000003553 ) ) ;
#5 = ORIENTED_EDGE ( 'NONE', *, *, #167, .F. ) ;
#6 = AXIS2_PLACEMENT_3D ( 'NONE', #237, #197, #285 ) ;
#7 = DATE_TIME_ROLE ( 'creation_date' ) ;
#8 = VERTEX_POINT ( 'NONE', #93 ) ;
#9 = AXIS2_PLACEMENT_3D ( 'NONE', #44, #188, #17 ) ;
#10 = APPROVAL_DATE_TIME ( #228, #66 ) ;
#11 = EDGE_LOOP ( 'NONE', ( #209, #227, #59, #147 ) ) ;
#12 = PERSON_AND_ORGANIZATION ( #56, #175 ) ;
#13 = ORIENTED_EDGE ( 'NONE', *, *, #214, .T. ) ;
#14 =( NAMED_UNIT ( * ) SI_UNIT ( $, .STERADIAN. ) SOLID_ANGLE_UNIT ( ) );
#15 = EDGE_CURVE ( 'NONE', #245, #267, #226, .T. ) ;
#16 = FACE_OUTER_BOUND ( 'NONE', #265, .T. ) ;
#17 = DIRECTION ( 'NONE',  ( 1.000000000000000000, 0.000000000000000000, 0.000000000000000000 ) ) ;
#18 = ADVANCED_FACE ( 'NONE', ( #65 ), #96, .T. ) ;
#19 = CIRCLE ( 'NONE', #289, 0.2000000000000000944 ) ;
#20 = CC_DESIGN_DATE_AND_TIME_ASSIGNMENT ( #114, #140, ( #219 ) ) ;
#21 = DIRECTION ( 'NONE',  ( 0.000000000000000000, 0.000000000000000000, 1.000000000000000000 ) ) ;
#22 = ADVANCED_FACE ( 'NONE', ( #286 ), #82, .T. ) ;
#23 = CARTESIAN_POINT ( 'NONE',  ( 0.000000000000000000, 0.000000000000000000, 1.500000000000000000 ) ) ;
#24 = CC_DESIGN_APPROVAL ( #269, ( #219 ) ) ;
#25 = PRODUCT_DEFINITION ( 'NEZNÁMÝ', '', #35, #256 ) ;
#26 = CARTESIAN_POINT ( 'NONE',  ( 0.000000000000000000, 0.000000000000000000, 126.5000000000000000 ) ) ;
#27 = DIRECTION ( 'NONE',  ( 1.000000000000000000, 0.000000000000000000, 0.000000000000000000 ) ) ;
#28 = AXIS2_PLACEMENT_3D ( 'NONE', #183, #271, #247 ) ;
#29 = APPROVAL_PERSON_ORGANIZATION ( #180, #208, #231 ) ;
#30 = ORIENTED_EDGE ( 'NONE', *, *, #272, .T. ) ;
#31 = EDGE_LOOP ( 'NONE', ( #78, #243, #181, #292 ) ) ;
#32 = APPROVAL_ROLE ( '' ) ;
#33 = ORIENTED_EDGE ( 'NONE', *, *, #15, .F. ) ;
#34 = VECTOR ( 'NONE', #48, 1000.000000000000000 ) ;
#35 = PRODUCT_DEFINITION_FORMATION_WITH_SPECIFIED_SOURCE ( 'LIBOVOLNÝ', '', #101, .NOT_KNOWN. ) ;
#36 = APPROVAL_STATUS ( 'not_yet_approved' ) ;
#37 = ORIENTED_EDGE ( 'NONE', *, *, #135, .T. ) ;
#38 = DIRECTION ( 'NONE',  ( 0.000000000000000000, 0.000000000000000000, 1.000000000000000000 ) ) ;
#39 = SHAPE_DEFINITION_REPRESENTATION ( #152, #185 ) ;
#40 = ADVANCED_FACE ( 'NONE', ( #176 ), #241, .T. ) ;
#41 = AXIS2_PLACEMENT_3D ( 'NONE', #115, #205, #295 ) ;
#42 = MECHANICAL_CONTEXT ( 'NONE', #279, 'mechanical' ) ;
#43 = LOCAL_TIME ( 12, 40, 6.000000000000000000, #64 ) ;
#44 = CARTESIAN_POINT ( 'NONE',  ( 0.000000000000000000, 0.000000000000000000, 1.700000000000007061 ) ) ;
#45 = EDGE_CURVE ( 'NONE', #91, #177, #57, .T. ) ;
#46 = CC_DESIGN_PERSON_AND_ORGANIZATION_ASSIGNMENT ( #12, #160, ( #25 ) ) ;
#47 = ORIENTED_EDGE ( 'NONE', *, *, #54, .T. ) ;
#48 = DIRECTION ( 'NONE',  ( -0.000000000000000000, -0.000000000000000000, -1.000000000000000000 ) ) ;
#49 = DIRECTION ( 'NONE',  ( 0.000000000000000000, 0.000000000000000000, 1.000000000000000000 ) ) ;
#50 = ORIENTED_EDGE ( 'NONE', *, *, #61, .T. ) ;
#51 = DIRECTION ( 'NONE',  ( 1.000000000000000000, 0.000000000000000000, -0.000000000000000000 ) ) ;
#52 = EDGE_CURVE ( 'NONE', #119, #137, #127, .T. ) ;
#53 = CARTESIAN_POINT ( 'NONE',  ( 0.6500000000000000222, 7.960204194457795477E-17, 126.5000000000000000 ) ) ;
#54 = EDGE_CURVE ( 'NONE', #137, #86, #72, .T. ) ;
#55 = DIRECTION ( 'NONE',  ( -0.000000000000000000, -0.000000000000000000, -1.000000000000000000 ) ) ;
#56 = PERSON ( 'NEURÈENÝ', 'NEURÈENÝ', 'NEURÈENÝ', ('NEURÈENÝ'), ('NEURÈENÝ'), ('NEURÈENÝ') ) ;
#57 = CIRCLE ( 'NONE', #216, 1.500000000000000222 ) ;
#58 = ORIENTED_EDGE ( 'NONE', *, *, #272, .F. ) ;
#59 = ORIENTED_EDGE ( 'NONE', *, *, #118, .T. ) ;
#60 = EDGE_LOOP ( 'NONE', ( #58, #90, #157, #158 ) ) ;
#61 = EDGE_CURVE ( 'NONE', #267, #245, #189, .T. ) ;
#62 = DATE_AND_TIME ( #95, #290 ) ;
#63 = ORIENTED_EDGE ( 'NONE', *, *, #68, .T. ) ;
#64 = COORDINATED_UNIVERSAL_TIME_OFFSET ( 1, 0, .AHEAD. ) ;
#65 = FACE_OUTER_BOUND ( 'NONE', #242, .T. ) ;
#66 = APPROVAL ( #244, 'NEURÈENÝ' ) ;
#67 = CARTESIAN_POINT ( 'NONE',  ( -1.500000000000000222, 0.000000000000000000, 0.000000000000000000 ) ) ;
#68 = EDGE_CURVE ( 'NONE', #119, #203, #171, .T. ) ;
#69 = COORDINATED_UNIVERSAL_TIME_OFFSET ( 1, 0, .AHEAD. ) ;
#70 = DIRECTION ( 'NONE',  ( 0.000000000000000000, 0.000000000000000000, 1.000000000000000000 ) ) ;
#71 = PERSON_AND_ORGANIZATION ( #56, #175 ) ;
#72 = CIRCLE ( 'NONE', #6, 0.8499999999999999778 ) ;
#73 = CARTESIAN_POINT ( 'NONE',  ( 0.000000000000000000, 0.000000000000000000, 0.000000000000000000 ) ) ;
#74 = AXIS2_PLACEMENT_3D ( 'NONE', #154, #221, #196 ) ;
#75 =( NAMED_UNIT ( * ) PLANE_ANGLE_UNIT ( ) SI_UNIT ( $, .RADIAN. ) );
#76 = TOROIDAL_SURFACE ( 'NONE', #162, 0.8499999999999999778, 0.2000000000000000111 ) ;
#77 = UNCERTAINTY_MEASURE_WITH_UNIT (LENGTH_MEASURE( 1.000000000000000082E-05 ), #97, 'distance_accuracy_value', 'NONE');
#78 = ORIENTED_EDGE ( 'NONE', *, *, #52, .F. ) ;
#79 = CIRCLE ( 'NONE', #9, 0.6500000000000000222 ) ;
#80 = CARTESIAN_POINT ( 'NONE',  ( -0.6500000000000000222, 0.000000000000000000, 1.700000000000007061 ) ) ;
#81 = FACE_OUTER_BOUND ( 'NONE', #133, .T. ) ;
#82 = CYLINDRICAL_SURFACE ( 'NONE', #207, 1.500000000000000222 ) ;
#83 = CARTESIAN_POINT ( 'NONE',  ( 0.8499999999999999778, 0.000000000000000000, 1.500000000000003553 ) ) ;
#84 = CC_DESIGN_PERSON_AND_ORGANIZATION_ASSIGNMENT ( #138, #112, ( #219 ) ) ;
#85 = ORIENTED_EDGE ( 'NONE', *, *, #167, .T. ) ;
#86 = VERTEX_POINT ( 'NONE', #83 ) ;
#87 = ORIENTED_EDGE ( 'NONE', *, *, #110, .F. ) ;
#88 = AXIS2_PLACEMENT_3D ( 'NONE', #281, #49, #128 ) ;
#89 = PERSON_AND_ORGANIZATION ( #56, #175 ) ;
#90 = ORIENTED_EDGE ( 'NONE', *, *, #142, .T. ) ;
#91 = VERTEX_POINT ( 'NONE', #282 ) ;
#92 = PERSON_AND_ORGANIZATION_ROLE ( 'design_supplier' ) ;
#93 = CARTESIAN_POINT ( 'NONE',  ( 1.500000000000000222, 1.836970198721030181E-16, 1.500000000000000000 ) ) ;
#94 = CC_DESIGN_PERSON_AND_ORGANIZATION_ASSIGNMENT ( #71, #184, ( #35 ) ) ;
#95 = CALENDAR_DATE ( 2022, 7, 7 ) ;
#96 = CYLINDRICAL_SURFACE ( 'NONE', #287, 0.6500000000000000222 ) ;
#97 =( LENGTH_UNIT ( ) NAMED_UNIT ( * ) SI_UNIT ( .MILLI., .METRE. ) );
#98 = DIRECTION ( 'NONE',  ( 0.000000000000000000, 0.000000000000000000, 1.000000000000000000 ) ) ;
#99 = AXIS2_PLACEMENT_3D ( 'NONE', #169, #220, #108 ) ;
#100 = CARTESIAN_POINT ( 'NONE',  ( 0.6500000000000000222, 7.960204194457795477E-17, 1.700000000000007061 ) ) ;
#101 = PRODUCT ( '4c23', '4c23', '', ( #42 ) ) ;
#102 = DIRECTION ( 'NONE',  ( -1.000000000000000000, 0.000000000000000000, 0.000000000000000000 ) ) ;
#103 = AXIS2_PLACEMENT_3D ( 'NONE', #23, #106, #195 ) ;
#104 = ADVANCED_FACE ( 'NONE', ( #259 ), #218, .F. ) ;
#105 = DIRECTION ( 'NONE',  ( 1.000000000000000000, 0.000000000000000000, -0.000000000000000000 ) ) ;
#106 = DIRECTION ( 'NONE',  ( -0.000000000000000000, -0.000000000000000000, -1.000000000000000000 ) ) ;
#107 = CARTESIAN_POINT ( 'NONE',  ( 1.500000000000000222, 1.836970198721030181E-16, 1.500000000000000000 ) ) ;
#108 = DIRECTION ( 'NONE',  ( 1.000000000000000000, 0.000000000000000000, 0.000000000000000000 ) ) ;
#109 = DIRECTION ( 'NONE',  ( -0.000000000000000000, -0.000000000000000000, -1.000000000000000000 ) ) ;
#110 = EDGE_CURVE ( 'NONE', #267, #203, #168, .T. ) ;
#111 = ORIENTED_EDGE ( 'NONE', *, *, #116, .F. ) ;
#112 = PERSON_AND_ORGANIZATION_ROLE ( 'classification_officer' ) ;
#113 = EDGE_LOOP ( 'NONE', ( #155, #50 ) ) ;
#114 = DATE_AND_TIME ( #246, #257 ) ;
#115 = CARTESIAN_POINT ( 'NONE',  ( 0.000000000000000000, 0.000000000000000000, 126.5000000000000000 ) ) ;
#116 = EDGE_CURVE ( 'NONE', #177, #91, #229, .T. ) ;
#117 = CALENDAR_DATE ( 2022, 7, 7 ) ;
#118 = EDGE_CURVE ( 'NONE', #300, #177, #217, .T. ) ;
#119 = VERTEX_POINT ( 'NONE', #80 ) ;
#120 = CARTESIAN_POINT ( 'NONE',  ( 0.8499999999999999778, 0.000000000000000000, 1.700000000000007061 ) ) ;
#121 = APPROVAL_PERSON_ORGANIZATION ( #136, #66, #32 ) ;
#122 = DIRECTION ( 'NONE',  ( 0.000000000000000000, -1.000000000000000000, 0.000000000000000000 ) ) ;
#123 = EDGE_CURVE ( 'NONE', #86, #137, #125, .T. ) ;
#124 = CYLINDRICAL_SURFACE ( 'NONE', #238, 1.500000000000000222 ) ;
#125 = CIRCLE ( 'NONE', #103, 0.8499999999999999778 ) ;
#126 = ADVANCED_FACE ( 'NONE', ( #172, #81 ), #222, .T. ) ;
#127 = CIRCLE ( 'NONE', #199, 0.1999999999999999833 ) ;
#128 = DIRECTION ( 'NONE',  ( 1.000000000000000000, 0.000000000000000000, 0.000000000000000000 ) ) ;
#129 = ORIENTED_EDGE ( 'NONE', *, *, #52, .T. ) ;
#130 = LINE ( 'NONE', #107, #253 ) ;
#131 = DIRECTION ( 'NONE',  ( 1.000000000000000000, 0.000000000000000000, 0.000000000000000000 ) ) ;
#132 = ORIENTED_EDGE ( 'NONE', *, *, #61, .F. ) ;
#133 = EDGE_LOOP ( 'NONE', ( #37, #30 ) ) ;
#134 = CC_DESIGN_DATE_AND_TIME_ASSIGNMENT ( #266, #7, ( #25 ) ) ;
#135 = EDGE_CURVE ( 'NONE', #300, #8, #210, .T. ) ;
#136 = PERSON_AND_ORGANIZATION ( #56, #175 ) ;
#137 = VERTEX_POINT ( 'NONE', #4 ) ;
#138 = PERSON_AND_ORGANIZATION ( #56, #175 ) ;
#139 = ORIENTED_EDGE ( 'NONE', *, *, #68, .F. ) ;
#140 = DATE_TIME_ROLE ( 'classification_date' ) ;
#141 = LINE ( 'NONE', #211, #166 ) ;
#142 = EDGE_CURVE ( 'NONE', #8, #91, #130, .T. ) ;
#143 = FACE_OUTER_BOUND ( 'NONE', #60, .T. ) ;
#144 = CARTESIAN_POINT ( 'NONE',  ( 0.000000000000000000, 0.000000000000000000, 1.500000000000000000 ) ) ;
#145 = EDGE_CURVE ( 'NONE', #203, #86, #19, .T. ) ;
#146 = APPROVAL_PERSON_ORGANIZATION ( #202, #269, #294 ) ;
#147 = ORIENTED_EDGE ( 'NONE', *, *, #116, .T. ) ;
#148 = CARTESIAN_POINT ( 'NONE',  ( -0.8499999999999999778, 1.040949779275250140E-16, 1.700000000000007061 ) ) ;
#149 = DIRECTION ( 'NONE',  ( 1.000000000000000000, 0.000000000000000000, 0.000000000000000000 ) ) ;
#150 = CARTESIAN_POINT ( 'NONE',  ( 0.000000000000000000, 0.000000000000000000, 1.500000000000000000 ) ) ;
#151 = AXIS2_PLACEMENT_3D ( 'NONE', #273, #70, #250 ) ;
#152 = PRODUCT_DEFINITION_SHAPE ( 'NONE', 'NONE',  #25 ) ;
#153 = CARTESIAN_POINT ( 'NONE',  ( -1.500000000000000222, 0.000000000000000000, 1.500000000000000000 ) ) ;
#154 = CARTESIAN_POINT ( 'NONE',  ( 0.000000000000000000, 0.000000000000000000, 1.700000000000007061 ) ) ;
#155 = ORIENTED_EDGE ( 'NONE', *, *, #15, .T. ) ;
#156 = CC_DESIGN_APPROVAL ( #66, ( #25 ) ) ;
#157 = ORIENTED_EDGE ( 'NONE', *, *, #45, .T. ) ;
#158 = ORIENTED_EDGE ( 'NONE', *, *, #118, .F. ) ;
#159 = ADVANCED_FACE ( 'NONE', ( #16 ), #299, .F. ) ;
#160 = PERSON_AND_ORGANIZATION_ROLE ( 'creator' ) ;
#161 = CYLINDRICAL_SURFACE ( 'NONE', #41, 0.6500000000000000222 ) ;
#162 = AXIS2_PLACEMENT_3D ( 'NONE', #302, #98, #234 ) ;
#163 = CALENDAR_DATE ( 2022, 7, 7 ) ;
#164 = DIRECTION ( 'NONE',  ( 1.000000000000000000, 0.000000000000000000, 0.000000000000000000 ) ) ;
#165 = APPROVAL_DATE_TIME ( #204, #208 ) ;
#166 = VECTOR ( 'NONE', #233, 1000.000000000000000 ) ;
#167 = EDGE_CURVE ( 'NONE', #245, #119, #141, .T. ) ;
#168 = LINE ( 'NONE', #53, #34 ) ;
#169 = CARTESIAN_POINT ( 'NONE',  ( 0.000000000000000000, 0.000000000000000000, 126.5000000000000000 ) ) ;
#170 = ADVANCED_FACE ( 'NONE', ( #301 ), #76, .F. ) ;
#171 = CIRCLE ( 'NONE', #74, 0.6500000000000000222 ) ;
#172 = FACE_BOUND ( 'NONE', #232, .T. ) ;
#173 = ORIENTED_EDGE ( 'NONE', *, *, #123, .F. ) ;
#174 = DIRECTION ( 'NONE',  ( -1.000000000000000000, 0.000000000000000000, 0.000000000000000000 ) ) ;
#175 = ORGANIZATION ( 'NEURÈENÝ', 'NEURÈENÝ', '' ) ;
#176 = FACE_OUTER_BOUND ( 'NONE', #113, .T. ) ;
#177 = VERTEX_POINT ( 'NONE', #67 ) ;
#178 = EDGE_LOOP ( 'NONE', ( #132, #268, #13, #5 ) ) ;
#179 = AXIS2_PLACEMENT_3D ( 'NONE', #144, #38, #164 ) ;
#180 = PERSON_AND_ORGANIZATION ( #56, #175 ) ;
#181 = ORIENTED_EDGE ( 'NONE', *, *, #145, .T. ) ;
#182 = PERSON_AND_ORGANIZATION_ROLE ( 'design_owner' ) ;
#183 = CARTESIAN_POINT ( 'NONE',  ( 0.000000000000000000, 0.000000000000000000, 126.5000000000000000 ) ) ;
#184 = PERSON_AND_ORGANIZATION_ROLE ( 'creator' ) ;
#185 = ADVANCED_BREP_SHAPE_REPRESENTATION ( '4c23', ( #223, #151 ), #278 ) ;
#186 = LOCAL_TIME ( 12, 40, 6.000000000000000000, #276 ) ;
#187 = APPLICATION_PROTOCOL_DEFINITION ( 'international standard', 'config_control_design', 1994, #201 ) ;
#188 = DIRECTION ( 'NONE',  ( 0.000000000000000000, 0.000000000000000000, 1.000000000000000000 ) ) ;
#189 = CIRCLE ( 'NONE', #99, 0.6500000000000000222 ) ;
#190 = CARTESIAN_POINT ( 'NONE',  ( -0.6500000000000000222, 0.000000000000000000, 126.5000000000000000 ) ) ;
#191 = CARTESIAN_POINT ( 'NONE',  ( 0.000000000000000000, 0.000000000000000000, 1.500000000000000000 ) ) ;
#192 = CC_DESIGN_APPROVAL ( #208, ( #35 ) ) ;
#193 = CIRCLE ( 'NONE', #179, 1.500000000000000222 ) ;
#194 = DIRECTION ( 'NONE',  ( 1.224646799147353207E-16, 1.000000000000000000, -0.000000000000000000 ) ) ;
#195 = DIRECTION ( 'NONE',  ( 1.000000000000000000, 0.000000000000000000, 0.000000000000000000 ) ) ;
#196 = DIRECTION ( 'NONE',  ( 1.000000000000000000, 0.000000000000000000, 0.000000000000000000 ) ) ;
#197 = DIRECTION ( 'NONE',  ( -0.000000000000000000, -0.000000000000000000, -1.000000000000000000 ) ) ;
#198 = DIRECTION ( 'NONE',  ( -1.000000000000000000, 0.000000000000000000, 0.000000000000000000 ) ) ;
#199 = AXIS2_PLACEMENT_3D ( 'NONE', #148, #194, #280 ) ;
#200 = ORIENTED_EDGE ( 'NONE', *, *, #123, .T. ) ;
#201 = APPLICATION_CONTEXT ( 'configuration controlled 3d designs of mechanical parts and assemblies' ) ;
#202 = PERSON_AND_ORGANIZATION ( #56, #175 ) ;
#203 = VERTEX_POINT ( 'NONE', #100 ) ;
#204 = DATE_AND_TIME ( #163, #43 ) ;
#205 = DIRECTION ( 'NONE',  ( -0.000000000000000000, -0.000000000000000000, -1.000000000000000000 ) ) ;
#206 = COORDINATED_UNIVERSAL_TIME_OFFSET ( 1, 0, .AHEAD. ) ;
#207 = AXIS2_PLACEMENT_3D ( 'NONE', #306, #258, #174 ) ;
#208 = APPROVAL ( #270, 'NEURÈENÝ' ) ;
#209 = ORIENTED_EDGE ( 'NONE', *, *, #142, .F. ) ;
#210 = CIRCLE ( 'NONE', #261, 1.500000000000000222 ) ;
#211 = CARTESIAN_POINT ( 'NONE',  ( -0.6500000000000000222, 0.000000000000000000, 126.5000000000000000 ) ) ;
#212 = DIRECTION ( 'NONE',  ( 1.000000000000000000, 0.000000000000000000, -0.000000000000000000 ) ) ;
#213 = DIRECTION ( 'NONE',  ( 0.000000000000000000, 0.000000000000000000, 1.000000000000000000 ) ) ;
#214 = EDGE_CURVE ( 'NONE', #203, #119, #79, .T. ) ;
#215 = VECTOR ( 'NONE', #55, 1000.000000000000000 ) ;
#216 = AXIS2_PLACEMENT_3D ( 'NONE', #236, #21, #27 ) ;
#217 = LINE ( 'NONE', #153, #215 ) ;
#218 = TOROIDAL_SURFACE ( 'NONE', #88, 0.8499999999999999778, 0.2000000000000000111 ) ;
#219 = SECURITY_CLASSIFICATION ( '', '', #274 ) ;
#220 = DIRECTION ( 'NONE',  ( 0.000000000000000000, 0.000000000000000000, 1.000000000000000000 ) ) ;
#221 = DIRECTION ( 'NONE',  ( 0.000000000000000000, 0.000000000000000000, 1.000000000000000000 ) ) ;
#222 = PLANE ( 'NONE',  #283 ) ;
#223 = MANIFOLD_SOLID_BREP ( 'Zaoblit1', #255 ) ;
#224 = AXIS2_PLACEMENT_3D ( 'NONE', #263, #2, #149 ) ;
#225 = EDGE_LOOP ( 'NONE', ( #139, #129, #173, #288 ) ) ;
#226 = CIRCLE ( 'NONE', #28, 0.6500000000000000222 ) ;
#227 = ORIENTED_EDGE ( 'NONE', *, *, #135, .F. ) ;
#228 = DATE_AND_TIME ( #291, #186 ) ;
#229 = CIRCLE ( 'NONE', #224, 1.500000000000000222 ) ;
#230 = FACE_OUTER_BOUND ( 'NONE', #178, .T. ) ;
#231 = APPROVAL_ROLE ( '' ) ;
#232 = EDGE_LOOP ( 'NONE', ( #200, #47 ) ) ;
#233 = DIRECTION ( 'NONE',  ( -0.000000000000000000, -0.000000000000000000, -1.000000000000000000 ) ) ;
#234 = DIRECTION ( 'NONE',  ( 1.000000000000000000, 0.000000000000000000, 0.000000000000000000 ) ) ;
#235 = DIRECTION ( 'NONE',  ( 0.000000000000000000, 0.000000000000000000, -1.000000000000000000 ) ) ;
#236 = CARTESIAN_POINT ( 'NONE',  ( 0.000000000000000000, 0.000000000000000000, 0.000000000000000000 ) ) ;
#237 = CARTESIAN_POINT ( 'NONE',  ( 0.000000000000000000, 0.000000000000000000, 1.500000000000000000 ) ) ;
#238 = AXIS2_PLACEMENT_3D ( 'NONE', #191, #298, #102 ) ;
#239 = DIRECTION ( 'NONE',  ( 0.000000000000000000, 0.000000000000000000, 1.000000000000000000 ) ) ;
#240 = ADVANCED_FACE ( 'NONE', ( #143 ), #124, .T. ) ;
#241 = PLANE ( 'NONE',  #252 ) ;
#242 = EDGE_LOOP ( 'NONE', ( #87, #33, #85, #63 ) ) ;
#243 = ORIENTED_EDGE ( 'NONE', *, *, #214, .F. ) ;
#244 = APPROVAL_STATUS ( 'not_yet_approved' ) ;
#245 = VERTEX_POINT ( 'NONE', #190 ) ;
#246 = CALENDAR_DATE ( 2022, 7, 7 ) ;
#247 = DIRECTION ( 'NONE',  ( 1.000000000000000000, 0.000000000000000000, 0.000000000000000000 ) ) ;
#248 = DIRECTION ( 'NONE',  ( -0.000000000000000000, -0.000000000000000000, -1.000000000000000000 ) ) ;
#249 = APPROVAL_DATE_TIME ( #62, #269 ) ;
#250 = DIRECTION ( 'NONE',  ( 1.000000000000000000, 0.000000000000000000, 0.000000000000000000 ) ) ;
#251 = PERSON_AND_ORGANIZATION ( #56, #175 ) ;
#252 = AXIS2_PLACEMENT_3D ( 'NONE', #26, #262, #105 ) ;
#253 = VECTOR ( 'NONE', #248, 1000.000000000000000 ) ;
#254 = APPLICATION_PROTOCOL_DEFINITION ( 'international standard', 'config_control_design', 1994, #279 ) ;
#255 = CLOSED_SHELL ( 'NONE', ( #104, #1, #240, #22, #126, #159, #18, #40, #170 ) ) ;
#256 = DESIGN_CONTEXT ( 'detailed design', #201, 'design' ) ;
#257 = LOCAL_TIME ( 12, 40, 6.000000000000000000, #69 ) ;
#258 = DIRECTION ( 'NONE',  ( -0.000000000000000000, -0.000000000000000000, -1.000000000000000000 ) ) ;
#259 = FACE_OUTER_BOUND ( 'NONE', #225, .T. ) ;
#260 = DIRECTION ( 'NONE',  ( 0.000000000000000000, 0.000000000000000000, 1.000000000000000000 ) ) ;
#261 = AXIS2_PLACEMENT_3D ( 'NONE', #3, #239, #131 ) ;
#262 = DIRECTION ( 'NONE',  ( 0.000000000000000000, 0.000000000000000000, 1.000000000000000000 ) ) ;
#263 = CARTESIAN_POINT ( 'NONE',  ( 0.000000000000000000, 0.000000000000000000, 0.000000000000000000 ) ) ;
#264 = ORIENTED_EDGE ( 'NONE', *, *, #45, .F. ) ;
#265 = EDGE_LOOP ( 'NONE', ( #111, #264 ) ) ;
#266 = DATE_AND_TIME ( #117, #307 ) ;
#267 = VERTEX_POINT ( 'NONE', #275 ) ;
#268 = ORIENTED_EDGE ( 'NONE', *, *, #110, .T. ) ;
#269 = APPROVAL ( #36, 'NEURÈENÝ' ) ;
#270 = APPROVAL_STATUS ( 'not_yet_approved' ) ;
#271 = DIRECTION ( 'NONE',  ( 0.000000000000000000, 0.000000000000000000, 1.000000000000000000 ) ) ;
#272 = EDGE_CURVE ( 'NONE', #8, #300, #193, .T. ) ;
#273 = CARTESIAN_POINT ( 'NONE',  ( 0.000000000000000000, 0.000000000000000000, 0.000000000000000000 ) ) ;
#274 = SECURITY_CLASSIFICATION_LEVEL ( 'unclassified' ) ;
#275 = CARTESIAN_POINT ( 'NONE',  ( 0.6500000000000000222, 7.960204194457795477E-17, 126.5000000000000000 ) ) ;
#276 = COORDINATED_UNIVERSAL_TIME_OFFSET ( 1, 0, .AHEAD. ) ;
#277 = CARTESIAN_POINT ( 'NONE',  ( -1.500000000000000222, 0.000000000000000000, 1.500000000000000000 ) ) ;
#278 =( GEOMETRIC_REPRESENTATION_CONTEXT ( 3 ) GLOBAL_UNCERTAINTY_ASSIGNED_CONTEXT ( ( #77 ) ) GLOBAL_UNIT_ASSIGNED_CONTEXT ( ( #97, #75, #14 ) ) REPRESENTATION_CONTEXT ( 'NONE', 'WORKASPACE' ) );
#279 = APPLICATION_CONTEXT ( 'configuration controlled 3d designs of mechanical parts and assemblies' ) ;
#280 = DIRECTION ( 'NONE',  ( -1.000000000000000000, 1.224646799147352714E-16, 0.000000000000000000 ) ) ;
#281 = CARTESIAN_POINT ( 'NONE',  ( 0.000000000000000000, 0.000000000000000000, 1.700000000000007061 ) ) ;
#282 = CARTESIAN_POINT ( 'NONE',  ( 1.500000000000000222, 1.836970198721030181E-16, 0.000000000000000000 ) ) ;
#283 = AXIS2_PLACEMENT_3D ( 'NONE', #150, #260, #51 ) ;
#284 = PRODUCT_RELATED_PRODUCT_CATEGORY ( 'detail', '', ( #101 ) ) ;
#285 = DIRECTION ( 'NONE',  ( 1.000000000000000000, 0.000000000000000000, 0.000000000000000000 ) ) ;
#286 = FACE_OUTER_BOUND ( 'NONE', #11, .T. ) ;
#287 = AXIS2_PLACEMENT_3D ( 'NONE', #297, #109, #198 ) ;
#288 = ORIENTED_EDGE ( 'NONE', *, *, #145, .F. ) ;
#289 = AXIS2_PLACEMENT_3D ( 'NONE', #120, #122, #235 ) ;
#290 = LOCAL_TIME ( 12, 40, 6.000000000000000000, #296 ) ;
#291 = CALENDAR_DATE ( 2022, 7, 7 ) ;
#292 = ORIENTED_EDGE ( 'NONE', *, *, #54, .F. ) ;
#293 = CC_DESIGN_PERSON_AND_ORGANIZATION_ASSIGNMENT ( #251, #92, ( #35 ) ) ;
#294 = APPROVAL_ROLE ( '' ) ;
#295 = DIRECTION ( 'NONE',  ( -1.000000000000000000, 0.000000000000000000, 0.000000000000000000 ) ) ;
#296 = COORDINATED_UNIVERSAL_TIME_OFFSET ( 1, 0, .AHEAD. ) ;
#297 = CARTESIAN_POINT ( 'NONE',  ( 0.000000000000000000, 0.000000000000000000, 126.5000000000000000 ) ) ;
#298 = DIRECTION ( 'NONE',  ( -0.000000000000000000, -0.000000000000000000, -1.000000000000000000 ) ) ;
#299 = PLANE ( 'NONE',  #303 ) ;
#300 = VERTEX_POINT ( 'NONE', #277 ) ;
#301 = FACE_OUTER_BOUND ( 'NONE', #31, .T. ) ;
#302 = CARTESIAN_POINT ( 'NONE',  ( 0.000000000000000000, 0.000000000000000000, 1.700000000000007061 ) ) ;
#303 = AXIS2_PLACEMENT_3D ( 'NONE', #73, #213, #212 ) ;
#304 = CC_DESIGN_SECURITY_CLASSIFICATION ( #219, ( #35 ) ) ;
#305 = CC_DESIGN_PERSON_AND_ORGANIZATION_ASSIGNMENT ( #89, #182, ( #101 ) ) ;
#306 = CARTESIAN_POINT ( 'NONE',  ( 0.000000000000000000, 0.000000000000000000, 1.500000000000000000 ) ) ;
#307 = LOCAL_TIME ( 12, 40, 6.000000000000000000, #206 ) ;
ENDSEC;
END-ISO-10303-21;
