ISO-10303-21;
HEADER;
FILE_DESCRIPTION (( 'STEP AP203' ),
    '1' );
FILE_NAME ('89c5.STEP',
    '2022-07-07T10:41:40',
    ( '' ),
    ( '' ),
    'SwSTEP 2.0',
    'SolidWorks 2019',
    '' );
FILE_SCHEMA (( 'CONFIG_CONTROL_DESIGN' ));
ENDSEC;

DATA;
#1 = APPLICATION_CONTEXT ( 'configuration controlled 3d designs of mechanical parts and assemblies' ) ;
#2 = EDGE_CURVE ( 'NONE', #41, #267, #223, .T. ) ;
#3 = DIRECTION ( 'NONE',  ( 0.000000000000000000, 0.000000000000000000, 1.000000000000000000 ) ) ;
#4 = DIRECTION ( 'NONE',  ( 0.000000000000000000, 0.000000000000000000, 1.000000000000000000 ) ) ;
#5 = CARTESIAN_POINT ( 'NONE',  ( 0.5000000000000000000, 6.123233995736766036E-17, 1.399999999999998579 ) ) ;
#6 = ORIENTED_EDGE ( 'NONE', *, *, #271, .F. ) ;
#7 = AXIS2_PLACEMENT_3D ( 'NONE', #134, #90, #52 ) ;
#8 = DIRECTION ( 'NONE',  ( 0.000000000000000000, 0.000000000000000000, 1.000000000000000000 ) ) ;
#9 = CC_DESIGN_PERSON_AND_ORGANIZATION_ASSIGNMENT ( #11, #32, ( #103 ) ) ;
#10 = ORIENTED_EDGE ( 'NONE', *, *, #17, .T. ) ;
#11 = PERSON_AND_ORGANIZATION ( #295, #245 ) ;
#12 = ORIENTED_EDGE ( 'NONE', *, *, #179, .F. ) ;
#13 = ORIENTED_EDGE ( 'NONE', *, *, #29, .F. ) ;
#14 = LOCAL_TIME ( 12, 41, 40.00000000000000000, #209 ) ;
#15 = AXIS2_PLACEMENT_3D ( 'NONE', #224, #161, #46 ) ;
#16 = DIRECTION ( 'NONE',  ( 0.000000000000000000, -1.000000000000000000, 0.000000000000000000 ) ) ;
#17 = EDGE_CURVE ( 'NONE', #285, #197, #265, .T. ) ;
#18 = ADVANCED_FACE ( 'NONE', ( #218 ), #167, .T. ) ;
#19 = AXIS2_PLACEMENT_3D ( 'NONE', #300, #277, #51 ) ;
#20 = ADVANCED_FACE ( 'NONE', ( #157, #227 ), #92, .T. ) ;
#21 = CARTESIAN_POINT ( 'NONE',  ( -1.250000000000000000, 0.000000000000000000, 1.199999999999999956 ) ) ;
#22 = DIRECTION ( 'NONE',  ( 1.000000000000000000, 0.000000000000000000, -0.000000000000000000 ) ) ;
#23 = CYLINDRICAL_SURFACE ( 'NONE', #39, 1.250000000000000000 ) ;
#24 = CARTESIAN_POINT ( 'NONE',  ( 0.000000000000000000, 0.000000000000000000, 1.399999999999998579 ) ) ;
#25 =( GEOMETRIC_REPRESENTATION_CONTEXT ( 3 ) GLOBAL_UNCERTAINTY_ASSIGNED_CONTEXT ( ( #74 ) ) GLOBAL_UNIT_ASSIGNED_CONTEXT ( ( #189, #237, #147 ) ) REPRESENTATION_CONTEXT ( 'NONE', 'WORKASPACE' ) );
#26 = ADVANCED_FACE ( 'NONE', ( #114 ), #23, .T. ) ;
#27 = CALENDAR_DATE ( 2022, 7, 7 ) ;
#28 = ORIENTED_EDGE ( 'NONE', *, *, #119, .F. ) ;
#29 = EDGE_CURVE ( 'NONE', #197, #174, #306, .T. ) ;
#30 = AXIS2_PLACEMENT_3D ( 'NONE', #96, #132, #206 ) ;
#31 = LINE ( 'NONE', #100, #281 ) ;
#32 = PERSON_AND_ORGANIZATION_ROLE ( 'design_supplier' ) ;
#33 = CARTESIAN_POINT ( 'NONE',  ( 0.000000000000000000, 0.000000000000000000, 126.2000000000000028 ) ) ;
#34 = PERSON_AND_ORGANIZATION_ROLE ( 'design_owner' ) ;
#35 = CARTESIAN_POINT ( 'NONE',  ( 0.000000000000000000, 0.000000000000000000, 1.399999999999998579 ) ) ;
#36 = DIRECTION ( 'NONE',  ( 1.000000000000000000, 0.000000000000000000, 0.000000000000000000 ) ) ;
#37 = AXIS2_PLACEMENT_3D ( 'NONE', #254, #8, #77 ) ;
#38 = DATE_TIME_ROLE ( 'creation_date' ) ;
#39 = AXIS2_PLACEMENT_3D ( 'NONE', #247, #246, #50 ) ;
#40 = DIRECTION ( 'NONE',  ( 0.000000000000000000, 0.000000000000000000, 1.000000000000000000 ) ) ;
#41 = VERTEX_POINT ( 'NONE', #21 ) ;
#42 = AXIS2_PLACEMENT_3D ( 'NONE', #243, #143, #193 ) ;
#43 = ADVANCED_FACE ( 'NONE', ( #304 ), #276, .T. ) ;
#44 = CC_DESIGN_APPROVAL ( #199, ( #200 ) ) ;
#45 = PRODUCT_DEFINITION_SHAPE ( 'NONE', 'NONE',  #244 ) ;
#46 = DIRECTION ( 'NONE',  ( 1.000000000000000000, 0.000000000000000000, 0.000000000000000000 ) ) ;
#47 = TOROIDAL_SURFACE ( 'NONE', #7, 0.6999999999999999556, 0.2000000000000000111 ) ;
#48 = DIRECTION ( 'NONE',  ( -0.000000000000000000, -0.000000000000000000, -1.000000000000000000 ) ) ;
#49 = CLOSED_SHELL ( 'NONE', ( #126, #43, #26, #162, #20, #118, #18, #153, #76 ) ) ;
#50 = DIRECTION ( 'NONE',  ( -1.000000000000000000, 0.000000000000000000, 0.000000000000000000 ) ) ;
#51 = DIRECTION ( 'NONE',  ( 1.000000000000000000, 0.000000000000000000, -0.000000000000000000 ) ) ;
#52 = DIRECTION ( 'NONE',  ( 1.000000000000000000, 0.000000000000000000, 0.000000000000000000 ) ) ;
#54 = CIRCLE ( 'NONE', #216, 1.250000000000000000 ) ;
#53 = DIRECTION ( 'NONE',  ( 1.000000000000000000, 0.000000000000000000, 0.000000000000000000 ) ) ;
#55 = APPROVAL_ROLE ( '' ) ;
#56 = CARTESIAN_POINT ( 'NONE',  ( 0.000000000000000000, 0.000000000000000000, 1.199999999999999956 ) ) ;
#57 = VERTEX_POINT ( 'NONE', #113 ) ;
#58 = APPROVAL_ROLE ( '' ) ;
#59 = APPROVAL_PERSON_ORGANIZATION ( #195, #199, #55 ) ;
#60 = CARTESIAN_POINT ( 'NONE',  ( 0.000000000000000000, 0.000000000000000000, 126.2000000000000028 ) ) ;
#61 = ORIENTED_EDGE ( 'NONE', *, *, #264, .T. ) ;
#62 = PERSON_AND_ORGANIZATION ( #295, #245 ) ;
#63 = EDGE_CURVE ( 'NONE', #261, #57, #292, .T. ) ;
#64 = CARTESIAN_POINT ( 'NONE',  ( 0.000000000000000000, 0.000000000000000000, 1.199999999999999956 ) ) ;
#65 = EDGE_LOOP ( 'NONE', ( #240, #242, #191, #144 ) ) ;
#66 = ORIENTED_EDGE ( 'NONE', *, *, #17, .F. ) ;
#67 = DIRECTION ( 'NONE',  ( 1.000000000000000000, 0.000000000000000000, 0.000000000000000000 ) ) ;
#68 = ADVANCED_BREP_SHAPE_REPRESENTATION ( '89c5', ( #91, #207 ), #25 ) ;
#69 = CC_DESIGN_PERSON_AND_ORGANIZATION_ASSIGNMENT ( #62, #215, ( #103 ) ) ;
#70 = AXIS2_PLACEMENT_3D ( 'NONE', #81, #16, #284 ) ;
#71 = APPROVAL_PERSON_ORGANIZATION ( #253, #172, #58 ) ;
#72 = DIRECTION ( 'NONE',  ( 0.000000000000000000, 0.000000000000000000, 1.000000000000000000 ) ) ;
#73 = DIRECTION ( 'NONE',  ( -1.000000000000000000, 0.000000000000000000, 0.000000000000000000 ) ) ;
#74 = UNCERTAINTY_MEASURE_WITH_UNIT (LENGTH_MEASURE( 1.000000000000000082E-05 ), #189, 'distance_accuracy_value', 'NONE');
#75 = CARTESIAN_POINT ( 'NONE',  ( 1.250000000000000000, 1.530808498934191571E-16, 1.199999999999999956 ) ) ;
#76 = ADVANCED_FACE ( 'NONE', ( #136 ), #299, .F. ) ;
#77 = DIRECTION ( 'NONE',  ( 1.000000000000000000, 0.000000000000000000, 0.000000000000000000 ) ) ;
#78 = APPROVAL_STATUS ( 'not_yet_approved' ) ;
#79 = DIRECTION ( 'NONE',  ( -1.000000000000000000, 1.224646799147352714E-16, 0.000000000000000000 ) ) ;
#80 = PERSON_AND_ORGANIZATION_ROLE ( 'creator' ) ;
#81 = CARTESIAN_POINT ( 'NONE',  ( 0.6999999999999999556, 0.000000000000000000, 1.399999999999998579 ) ) ;
#82 = EDGE_LOOP ( 'NONE', ( #258, #220, #293, #214 ) ) ;
#83 = PERSON_AND_ORGANIZATION ( #295, #245 ) ;
#84 = ORIENTED_EDGE ( 'NONE', *, *, #179, .T. ) ;
#85 = APPROVAL_STATUS ( 'not_yet_approved' ) ;
#86 = ORIENTED_EDGE ( 'NONE', *, *, #131, .T. ) ;
#87 = VECTOR ( 'NONE', #250, 1000.000000000000000 ) ;
#88 = ORIENTED_EDGE ( 'NONE', *, *, #236, .F. ) ;
#89 = CARTESIAN_POINT ( 'NONE',  ( -0.6999999999999999556, 8.572527594031471957E-17, 1.399999999999998579 ) ) ;
#90 = DIRECTION ( 'NONE',  ( 0.000000000000000000, 0.000000000000000000, 1.000000000000000000 ) ) ;
#91 = MANIFOLD_SOLID_BREP ( 'Zaoblit1', #49 ) ;
#92 = PLANE ( 'NONE',  #160 ) ;
#93 = DIRECTION ( 'NONE',  ( -0.000000000000000000, -0.000000000000000000, -1.000000000000000000 ) ) ;
#94 = AXIS2_PLACEMENT_3D ( 'NONE', #234, #40, #36 ) ;
#95 = EDGE_CURVE ( 'NONE', #109, #174, #139, .T. ) ;
#96 = CARTESIAN_POINT ( 'NONE',  ( 0.000000000000000000, 0.000000000000000000, 1.199999999999999956 ) ) ;
#97 = PERSON_AND_ORGANIZATION ( #295, #245 ) ;
#98 = FACE_OUTER_BOUND ( 'NONE', #152, .T. ) ;
#99 = DIRECTION ( 'NONE',  ( 1.000000000000000000, 0.000000000000000000, 0.000000000000000000 ) ) ;
#100 = CARTESIAN_POINT ( 'NONE',  ( -1.250000000000000000, 0.000000000000000000, 1.199999999999999956 ) ) ;
#101 = DIRECTION ( 'NONE',  ( -1.000000000000000000, 0.000000000000000000, 0.000000000000000000 ) ) ;
#102 = APPLICATION_PROTOCOL_DEFINITION ( 'international standard', 'config_control_design', 1994, #1 ) ;
#103 = PRODUCT_DEFINITION_FORMATION_WITH_SPECIFIED_SOURCE ( 'LIBOVOLNÝ', '', #180, .NOT_KNOWN. ) ;
#104 = DIRECTION ( 'NONE',  ( 0.000000000000000000, 0.000000000000000000, 1.000000000000000000 ) ) ;
#105 = ORIENTED_EDGE ( 'NONE', *, *, #268, .F. ) ;
#106 = DATE_TIME_ROLE ( 'classification_date' ) ;
#107 = EDGE_LOOP ( 'NONE', ( #10, #290 ) ) ;
#108 = CC_DESIGN_DATE_AND_TIME_ASSIGNMENT ( #256, #38, ( #244 ) ) ;
#109 = VERTEX_POINT ( 'NONE', #186 ) ;
#110 = CC_DESIGN_SECURITY_CLASSIFICATION ( #200, ( #103 ) ) ;
#111 = DIRECTION ( 'NONE',  ( 1.000000000000000000, 0.000000000000000000, 0.000000000000000000 ) ) ;
#112 = CARTESIAN_POINT ( 'NONE',  ( 0.000000000000000000, 0.000000000000000000, 126.2000000000000028 ) ) ;
#113 = CARTESIAN_POINT ( 'NONE',  ( 0.6999999999999999556, 0.000000000000000000, 1.199999999999999289 ) ) ;
#114 = FACE_OUTER_BOUND ( 'NONE', #65, .T. ) ;
#115 = DATE_AND_TIME ( #168, #155 ) ;
#116 = CARTESIAN_POINT ( 'NONE',  ( 1.250000000000000000, 1.530808498934191571E-16, 1.199999999999999956 ) ) ;
#117 = APPROVAL_ROLE ( '' ) ;
#118 = ADVANCED_FACE ( 'NONE', ( #249 ), #202, .F. ) ;
#119 = EDGE_CURVE ( 'NONE', #267, #125, #204, .T. ) ;
#120 = CARTESIAN_POINT ( 'NONE',  ( 0.000000000000000000, 0.000000000000000000, 0.000000000000000000 ) ) ;
#121 = DIRECTION ( 'NONE',  ( -0.000000000000000000, -0.000000000000000000, -1.000000000000000000 ) ) ;
#122 = APPROVAL_DATE_TIME ( #235, #172 ) ;
#123 = AXIS2_PLACEMENT_3D ( 'NONE', #60, #3, #232 ) ;
#124 = CARTESIAN_POINT ( 'NONE',  ( -0.6999999999999999556, 8.572527594031473190E-17, 1.199999999999999289 ) ) ;
#125 = VERTEX_POINT ( 'NONE', #226 ) ;
#126 = ADVANCED_FACE ( 'NONE', ( #208 ), #47, .F. ) ;
#127 = DIRECTION ( 'NONE',  ( 0.000000000000000000, 0.000000000000000000, 1.000000000000000000 ) ) ;
#128 = EDGE_LOOP ( 'NONE', ( #84, #266 ) ) ;
#129 = APPLICATION_CONTEXT ( 'configuration controlled 3d designs of mechanical parts and assemblies' ) ;
#130 = LOCAL_TIME ( 12, 41, 40.00000000000000000, #142 ) ;
#131 = EDGE_CURVE ( 'NONE', #285, #109, #182, .T. ) ;
#132 = DIRECTION ( 'NONE',  ( -0.000000000000000000, -0.000000000000000000, -1.000000000000000000 ) ) ;
#133 = VECTOR ( 'NONE', #137, 1000.000000000000000 ) ;
#134 = CARTESIAN_POINT ( 'NONE',  ( 0.000000000000000000, 0.000000000000000000, 1.399999999999998579 ) ) ;
#135 = DESIGN_CONTEXT ( 'detailed design', #129, 'design' ) ;
#136 = FACE_OUTER_BOUND ( 'NONE', #149, .T. ) ;
#137 = DIRECTION ( 'NONE',  ( -0.000000000000000000, -0.000000000000000000, -1.000000000000000000 ) ) ;
#138 = PLANE ( 'NONE',  #158 ) ;
#139 = CIRCLE ( 'NONE', #15, 0.5000000000000000000 ) ;
#140 = DATE_AND_TIME ( #27, #297 ) ;
#141 = ORIENTED_EDGE ( 'NONE', *, *, #236, .T. ) ;
#142 = COORDINATED_UNIVERSAL_TIME_OFFSET ( 1, 0, .AHEAD. ) ;
#143 = DIRECTION ( 'NONE',  ( 0.000000000000000000, 0.000000000000000000, 1.000000000000000000 ) ) ;
#144 = ORIENTED_EDGE ( 'NONE', *, *, #264, .F. ) ;
#145 = COORDINATED_UNIVERSAL_TIME_OFFSET ( 1, 0, .AHEAD. ) ;
#146 = VECTOR ( 'NONE', #48, 1000.000000000000000 ) ;
#147 =( NAMED_UNIT ( * ) SI_UNIT ( $, .STERADIAN. ) SOLID_ANGLE_UNIT ( ) );
#148 = ORIENTED_EDGE ( 'NONE', *, *, #95, .F. ) ;
#149 = EDGE_LOOP ( 'NONE', ( #105, #6, #288, #279 ) ) ;
#150 = VERTEX_POINT ( 'NONE', #225 ) ;
#151 = CIRCLE ( 'NONE', #37, 1.250000000000000000 ) ;
#152 = EDGE_LOOP ( 'NONE', ( #28, #221, #61, #141 ) ) ;
#153 = ADVANCED_FACE ( 'NONE', ( #251 ), #138, .T. ) ;
#154 = APPROVAL ( #78, 'NEURÈENÝ' ) ;
#155 = LOCAL_TIME ( 12, 41, 40.00000000000000000, #164 ) ;
#156 = AXIS2_PLACEMENT_3D ( 'NONE', #112, #93, #73 ) ;
#157 = FACE_BOUND ( 'NONE', #128, .T. ) ;
#158 = AXIS2_PLACEMENT_3D ( 'NONE', #273, #72, #22 ) ;
#159 = EDGE_LOOP ( 'NONE', ( #196, #255 ) ) ;
#160 = AXIS2_PLACEMENT_3D ( 'NONE', #185, #183, #303 ) ;
#161 = DIRECTION ( 'NONE',  ( 0.000000000000000000, 0.000000000000000000, 1.000000000000000000 ) ) ;
#162 = ADVANCED_FACE ( 'NONE', ( #98 ), #213, .T. ) ;
#163 = DIRECTION ( 'NONE',  ( 0.000000000000000000, 0.000000000000000000, 1.000000000000000000 ) ) ;
#164 = COORDINATED_UNIVERSAL_TIME_OFFSET ( 1, 0, .AHEAD. ) ;
#165 = CIRCLE ( 'NONE', #42, 1.250000000000000000 ) ;
#166 = DIRECTION ( 'NONE',  ( 1.000000000000000000, 0.000000000000000000, 0.000000000000000000 ) ) ;
#167 = CYLINDRICAL_SURFACE ( 'NONE', #177, 0.5000000000000000000 ) ;
#168 = CALENDAR_DATE ( 2022, 7, 7 ) ;
#169 = DIRECTION ( 'NONE',  ( -1.000000000000000000, 0.000000000000000000, 0.000000000000000000 ) ) ;
#170 = ORIENTED_EDGE ( 'NONE', *, *, #95, .T. ) ;
#171 = CALENDAR_DATE ( 2022, 7, 7 ) ;
#172 = APPROVAL ( #219, 'NEURÈENÝ' ) ;
#173 = CARTESIAN_POINT ( 'NONE',  ( 0.000000000000000000, 0.000000000000000000, 0.000000000000000000 ) ) ;
#174 = VERTEX_POINT ( 'NONE', #5 ) ;
#175 = CIRCLE ( 'NONE', #123, 0.5000000000000000000 ) ;
#176 = ORIENTED_EDGE ( 'NONE', *, *, #268, .T. ) ;
#177 = AXIS2_PLACEMENT_3D ( 'NONE', #33, #121, #101 ) ;
#178 = CARTESIAN_POINT ( 'NONE',  ( 0.000000000000000000, 0.000000000000000000, 126.2000000000000028 ) ) ;
#179 = EDGE_CURVE ( 'NONE', #57, #261, #263, .T. ) ;
#180 = PRODUCT ( '89c5', '89c5', '', ( #188 ) ) ;
#181 = CIRCLE ( 'NONE', #201, 0.5000000000000000000 ) ;
#182 = LINE ( 'NONE', #231, #146 ) ;
#183 = DIRECTION ( 'NONE',  ( 0.000000000000000000, 0.000000000000000000, 1.000000000000000000 ) ) ;
#184 = CIRCLE ( 'NONE', #296, 0.1999999999999999833 ) ;
#185 = CARTESIAN_POINT ( 'NONE',  ( 0.000000000000000000, 0.000000000000000000, 1.199999999999999956 ) ) ;
#186 = CARTESIAN_POINT ( 'NONE',  ( -0.5000000000000000000, 0.000000000000000000, 1.399999999999998579 ) ) ;
#187 = APPLICATION_PROTOCOL_DEFINITION ( 'international standard', 'config_control_design', 1994, #129 ) ;
#188 = MECHANICAL_CONTEXT ( 'NONE', #1, 'mechanical' ) ;
#189 =( LENGTH_UNIT ( ) NAMED_UNIT ( * ) SI_UNIT ( .MILLI., .METRE. ) );
#190 = CC_DESIGN_PERSON_AND_ORGANIZATION_ASSIGNMENT ( #211, #80, ( #244 ) ) ;
#191 = ORIENTED_EDGE ( 'NONE', *, *, #203, .T. ) ;
#192 = APPROVAL_DATE_TIME ( #115, #154 ) ;
#193 = DIRECTION ( 'NONE',  ( 1.000000000000000000, 0.000000000000000000, 0.000000000000000000 ) ) ;
#194 = EDGE_LOOP ( 'NONE', ( #88, #238 ) ) ;
#195 = PERSON_AND_ORGANIZATION ( #295, #245 ) ;
#196 = ORIENTED_EDGE ( 'NONE', *, *, #2, .T. ) ;
#197 = VERTEX_POINT ( 'NONE', #294 ) ;
#198 = DIRECTION ( 'NONE',  ( -0.000000000000000000, -0.000000000000000000, -1.000000000000000000 ) ) ;
#199 = APPROVAL ( #85, 'NEURÈENÝ' ) ;
#200 = SECURITY_CLASSIFICATION ( '', '', #286 ) ;
#201 = AXIS2_PLACEMENT_3D ( 'NONE', #35, #260, #278 ) ;
#202 = PLANE ( 'NONE',  #19 ) ;
#203 = EDGE_CURVE ( 'NONE', #125, #150, #54, .T. ) ;
#204 = LINE ( 'NONE', #75, #133 ) ;
#205 = EDGE_LOOP ( 'NONE', ( #148, #176, #12, #272 ) ) ;
#206 = DIRECTION ( 'NONE',  ( 1.000000000000000000, 0.000000000000000000, 0.000000000000000000 ) ) ;
#207 = AXIS2_PLACEMENT_3D ( 'NONE', #120, #4, #99 ) ;
#208 = FACE_OUTER_BOUND ( 'NONE', #205, .T. ) ;
#209 = COORDINATED_UNIVERSAL_TIME_OFFSET ( 1, 0, .AHEAD. ) ;
#210 = LOCAL_TIME ( 12, 41, 40.00000000000000000, #145 ) ;
#211 = PERSON_AND_ORGANIZATION ( #295, #245 ) ;
#212 = EDGE_CURVE ( 'NONE', #267, #41, #151, .T. ) ;
#213 = CYLINDRICAL_SURFACE ( 'NONE', #252, 1.250000000000000000 ) ;
#214 = ORIENTED_EDGE ( 'NONE', *, *, #131, .F. ) ;
#215 = PERSON_AND_ORGANIZATION_ROLE ( 'creator' ) ;
#216 = AXIS2_PLACEMENT_3D ( 'NONE', #173, #104, #53 ) ;
#217 = DIRECTION ( 'NONE',  ( -0.000000000000000000, -0.000000000000000000, -1.000000000000000000 ) ) ;
#218 = FACE_OUTER_BOUND ( 'NONE', #283, .T. ) ;
#219 = APPROVAL_STATUS ( 'not_yet_approved' ) ;
#220 = ORIENTED_EDGE ( 'NONE', *, *, #29, .T. ) ;
#221 = ORIENTED_EDGE ( 'NONE', *, *, #2, .F. ) ;
#222 = EDGE_CURVE ( 'NONE', #174, #57, #229, .T. ) ;
#223 = CIRCLE ( 'NONE', #94, 1.250000000000000000 ) ;
#224 = CARTESIAN_POINT ( 'NONE',  ( 0.000000000000000000, 0.000000000000000000, 1.399999999999998579 ) ) ;
#225 = CARTESIAN_POINT ( 'NONE',  ( -1.250000000000000000, 0.000000000000000000, 0.000000000000000000 ) ) ;
#226 = CARTESIAN_POINT ( 'NONE',  ( 1.250000000000000000, 1.530808498934191571E-16, 0.000000000000000000 ) ) ;
#227 = FACE_OUTER_BOUND ( 'NONE', #159, .T. ) ;
#228 = EDGE_CURVE ( 'NONE', #197, #285, #175, .T. ) ;
#229 = CIRCLE ( 'NONE', #70, 0.2000000000000000944 ) ;
#230 = AXIS2_PLACEMENT_3D ( 'NONE', #24, #163, #111 ) ;
#231 = CARTESIAN_POINT ( 'NONE',  ( -0.5000000000000000000, 0.000000000000000000, 126.2000000000000028 ) ) ;
#232 = DIRECTION ( 'NONE',  ( 1.000000000000000000, 0.000000000000000000, 0.000000000000000000 ) ) ;
#233 = APPROVAL_DATE_TIME ( #140, #199 ) ;
#234 = CARTESIAN_POINT ( 'NONE',  ( 0.000000000000000000, 0.000000000000000000, 1.199999999999999956 ) ) ;
#235 = DATE_AND_TIME ( #307, #130 ) ;
#236 = EDGE_CURVE ( 'NONE', #150, #125, #165, .T. ) ;
#237 =( NAMED_UNIT ( * ) PLANE_ANGLE_UNIT ( ) SI_UNIT ( $, .RADIAN. ) );
#238 = ORIENTED_EDGE ( 'NONE', *, *, #203, .F. ) ;
#239 = DATE_AND_TIME ( #289, #210 ) ;
#240 = ORIENTED_EDGE ( 'NONE', *, *, #212, .F. ) ;
#241 = CC_DESIGN_DATE_AND_TIME_ASSIGNMENT ( #239, #106, ( #200 ) ) ;
#242 = ORIENTED_EDGE ( 'NONE', *, *, #119, .T. ) ;
#243 = CARTESIAN_POINT ( 'NONE',  ( 0.000000000000000000, 0.000000000000000000, 0.000000000000000000 ) ) ;
#244 = PRODUCT_DEFINITION ( 'NEZNÁMÝ', '', #103, #135 ) ;
#245 = ORGANIZATION ( 'NEURÈENÝ', 'NEURÈENÝ', '' ) ;
#246 = DIRECTION ( 'NONE',  ( -0.000000000000000000, -0.000000000000000000, -1.000000000000000000 ) ) ;
#247 = CARTESIAN_POINT ( 'NONE',  ( 0.000000000000000000, 0.000000000000000000, 1.199999999999999956 ) ) ;
#248 = AXIS2_PLACEMENT_3D ( 'NONE', #56, #257, #166 ) ;
#249 = FACE_OUTER_BOUND ( 'NONE', #194, .T. ) ;
#250 = DIRECTION ( 'NONE',  ( -0.000000000000000000, -0.000000000000000000, -1.000000000000000000 ) ) ;
#251 = FACE_OUTER_BOUND ( 'NONE', #107, .T. ) ;
#252 = AXIS2_PLACEMENT_3D ( 'NONE', #64, #198, #169 ) ;
#253 = PERSON_AND_ORGANIZATION ( #295, #245 ) ;
#254 = CARTESIAN_POINT ( 'NONE',  ( 0.000000000000000000, 0.000000000000000000, 1.199999999999999956 ) ) ;
#255 = ORIENTED_EDGE ( 'NONE', *, *, #212, .T. ) ;
#256 = DATE_AND_TIME ( #171, #14 ) ;
#257 = DIRECTION ( 'NONE',  ( -0.000000000000000000, -0.000000000000000000, -1.000000000000000000 ) ) ;
#258 = ORIENTED_EDGE ( 'NONE', *, *, #228, .F. ) ;
#259 = PERSON_AND_ORGANIZATION_ROLE ( 'classification_officer' ) ;
#260 = DIRECTION ( 'NONE',  ( 0.000000000000000000, 0.000000000000000000, 1.000000000000000000 ) ) ;
#261 = VERTEX_POINT ( 'NONE', #124 ) ;
#262 = COORDINATED_UNIVERSAL_TIME_OFFSET ( 1, 0, .AHEAD. ) ;
#263 = CIRCLE ( 'NONE', #248, 0.6999999999999999556 ) ;
#264 = EDGE_CURVE ( 'NONE', #41, #150, #31, .T. ) ;
#265 = CIRCLE ( 'NONE', #305, 0.5000000000000000000 ) ;
#266 = ORIENTED_EDGE ( 'NONE', *, *, #63, .T. ) ;
#267 = VERTEX_POINT ( 'NONE', #116 ) ;
#268 = EDGE_CURVE ( 'NONE', #109, #261, #184, .T. ) ;
#269 = PRODUCT_RELATED_PRODUCT_CATEGORY ( 'detail', '', ( #180 ) ) ;
#270 = CC_DESIGN_APPROVAL ( #154, ( #244 ) ) ;
#271 = EDGE_CURVE ( 'NONE', #174, #109, #181, .T. ) ;
#272 = ORIENTED_EDGE ( 'NONE', *, *, #222, .F. ) ;
#273 = CARTESIAN_POINT ( 'NONE',  ( 0.000000000000000000, 0.000000000000000000, 126.2000000000000028 ) ) ;
#274 = CARTESIAN_POINT ( 'NONE',  ( 0.5000000000000000000, 6.123233995736766036E-17, 126.2000000000000028 ) ) ;
#275 = SHAPE_DEFINITION_REPRESENTATION ( #45, #68 ) ;
#276 = CYLINDRICAL_SURFACE ( 'NONE', #156, 0.5000000000000000000 ) ;
#277 = DIRECTION ( 'NONE',  ( 0.000000000000000000, 0.000000000000000000, 1.000000000000000000 ) ) ;
#278 = DIRECTION ( 'NONE',  ( 1.000000000000000000, 0.000000000000000000, 0.000000000000000000 ) ) ;
#279 = ORIENTED_EDGE ( 'NONE', *, *, #63, .F. ) ;
#280 = CARTESIAN_POINT ( 'NONE',  ( -0.5000000000000000000, 0.000000000000000000, 126.2000000000000028 ) ) ;
#281 = VECTOR ( 'NONE', #217, 1000.000000000000000 ) ;
#282 = PERSON_AND_ORGANIZATION ( #295, #245 ) ;
#283 = EDGE_LOOP ( 'NONE', ( #13, #66, #86, #170 ) ) ;
#284 = DIRECTION ( 'NONE',  ( 0.000000000000000000, 0.000000000000000000, -1.000000000000000000 ) ) ;
#285 = VERTEX_POINT ( 'NONE', #280 ) ;
#286 = SECURITY_CLASSIFICATION_LEVEL ( 'unclassified' ) ;
#287 = DIRECTION ( 'NONE',  ( 1.224646799147353207E-16, 1.000000000000000000, -0.000000000000000000 ) ) ;
#288 = ORIENTED_EDGE ( 'NONE', *, *, #222, .T. ) ;
#289 = CALENDAR_DATE ( 2022, 7, 7 ) ;
#290 = ORIENTED_EDGE ( 'NONE', *, *, #228, .T. ) ;
#291 = APPROVAL_PERSON_ORGANIZATION ( #282, #154, #117 ) ;
#292 = CIRCLE ( 'NONE', #30, 0.6999999999999999556 ) ;
#293 = ORIENTED_EDGE ( 'NONE', *, *, #271, .T. ) ;
#294 = CARTESIAN_POINT ( 'NONE',  ( 0.5000000000000000000, 6.123233995736766036E-17, 126.2000000000000028 ) ) ;
#295 = PERSON ( 'NEURÈENÝ', 'NEURÈENÝ', 'NEURÈENÝ', ('NEURÈENÝ'), ('NEURÈENÝ'), ('NEURÈENÝ') ) ;
#296 = AXIS2_PLACEMENT_3D ( 'NONE', #89, #287, #79 ) ;
#297 = LOCAL_TIME ( 12, 41, 40.00000000000000000, #262 ) ;
#298 = CC_DESIGN_PERSON_AND_ORGANIZATION_ASSIGNMENT ( #83, #259, ( #200 ) ) ;
#299 = TOROIDAL_SURFACE ( 'NONE', #230, 0.6999999999999999556, 0.2000000000000000111 ) ;
#300 = CARTESIAN_POINT ( 'NONE',  ( 0.000000000000000000, 0.000000000000000000, 0.000000000000000000 ) ) ;
#301 = CC_DESIGN_PERSON_AND_ORGANIZATION_ASSIGNMENT ( #97, #34, ( #180 ) ) ;
#302 = CC_DESIGN_APPROVAL ( #172, ( #103 ) ) ;
#303 = DIRECTION ( 'NONE',  ( 1.000000000000000000, 0.000000000000000000, -0.000000000000000000 ) ) ;
#304 = FACE_OUTER_BOUND ( 'NONE', #82, .T. ) ;
#305 = AXIS2_PLACEMENT_3D ( 'NONE', #178, #127, #67 ) ;
#306 = LINE ( 'NONE', #274, #87 ) ;
#307 = CALENDAR_DATE ( 2022, 7, 7 ) ;
ENDSEC;
END-ISO-10303-21;
