ISO-10303-21;
HEADER;
FILE_DESCRIPTION (( 'STEP AP203' ),
    '1' );
FILE_NAME ('b5bf.STEP',
    '2022-07-07T10:05:28',
    ( '' ),
    ( '' ),
    'SwSTEP 2.0',
    'SolidWorks 2019',
    '' );
FILE_SCHEMA (( 'CONFIG_CONTROL_DESIGN' ));
ENDSEC;

DATA;
#1 = DIRECTION ( 'NONE',  ( 0.000000000000000000, 0.000000000000000000, 1.000000000000000000 ) ) ;
#2 = CYLINDRICAL_SURFACE ( 'NONE', #107, 6.000000000000000888 ) ;
#3 = APPROVAL_ROLE ( '' ) ;
#4 = VECTOR ( 'NONE', #255, 1000.000000000000000 ) ;
#5 = COORDINATED_UNIVERSAL_TIME_OFFSET ( 1, 0, .AHEAD. ) ;
#6 = AXIS2_PLACEMENT_3D ( 'NONE', #11, #129, #57 ) ;
#7 = APPLICATION_PROTOCOL_DEFINITION ( 'international standard', 'config_control_design', 1994, #237 ) ;
#8 = EDGE_LOOP ( 'NONE', ( #178, #193 ) ) ;
#9 = APPROVAL_DATE_TIME ( #179, #31 ) ;
#10 = ORIENTED_EDGE ( 'NONE', *, *, #45, .F. ) ;
#11 = CARTESIAN_POINT ( 'NONE',  ( 0.000000000000000000, 0.000000000000000000, 0.000000000000000000 ) ) ;
#12 = ORIENTED_EDGE ( 'NONE', *, *, #147, .T. ) ;
#13 = CARTESIAN_POINT ( 'NONE',  ( 0.000000000000000000, 0.000000000000000000, 5.000000000000000000 ) ) ;
#14 = EDGE_CURVE ( 'NONE', #136, #283, #301, .T. ) ;
#15 = CLOSED_SHELL ( 'NONE', ( #260, #153, #132, #299, #282, #174, #257, #295, #245 ) ) ;
#16 = CARTESIAN_POINT ( 'NONE',  ( 3.750000000000000000, 4.592425496802573972E-16, 205.0000000000000284 ) ) ;
#17 = DIRECTION ( 'NONE',  ( 0.000000000000000000, 0.000000000000000000, 1.000000000000000000 ) ) ;
#18 = AXIS2_PLACEMENT_3D ( 'NONE', #22, #100, #122 ) ;
#19 = DIRECTION ( 'NONE',  ( 1.000000000000000000, 0.000000000000000000, 0.000000000000000000 ) ) ;
#20 = EDGE_CURVE ( 'NONE', #58, #267, #64, .T. ) ;
#21 = DIRECTION ( 'NONE',  ( 1.000000000000000000, 0.000000000000000000, 0.000000000000000000 ) ) ;
#22 = CARTESIAN_POINT ( 'NONE',  ( 0.000000000000000000, 0.000000000000000000, 5.200000000000009948 ) ) ;
#23 = AXIS2_PLACEMENT_3D ( 'NONE', #173, #218, #148 ) ;
#24 = DIRECTION ( 'NONE',  ( 1.000000000000000000, 0.000000000000000000, 0.000000000000000000 ) ) ;
#25 = EDGE_CURVE ( 'NONE', #136, #192, #276, .T. ) ;
#26 = FACE_BOUND ( 'NONE', #63, .T. ) ;
#27 = AXIS2_PLACEMENT_3D ( 'NONE', #118, #120, #139 ) ;
#28 = PLANE ( 'NONE',  #227 ) ;
#29 = APPROVAL_PERSON_ORGANIZATION ( #34, #230, #294 ) ;
#30 = CALENDAR_DATE ( 2022, 7, 7 ) ;
#31 = APPROVAL ( #228, 'NEURÈENÝ' ) ;
#32 = ORIENTED_EDGE ( 'NONE', *, *, #241, .T. ) ;
#33 =( NAMED_UNIT ( * ) SI_UNIT ( $, .STERADIAN. ) SOLID_ANGLE_UNIT ( ) );
#34 = PERSON_AND_ORGANIZATION ( #203, #272 ) ;
#35 = ORIENTED_EDGE ( 'NONE', *, *, #181, .T. ) ;
#36 = APPROVAL_DATE_TIME ( #201, #134 ) ;
#37 = ORIENTED_EDGE ( 'NONE', *, *, #66, .F. ) ;
#38 = VECTOR ( 'NONE', #99, 1000.000000000000000 ) ;
#39 = EDGE_CURVE ( 'NONE', #70, #192, #256, .T. ) ;
#40 = CARTESIAN_POINT ( 'NONE',  ( 6.000000000000000888, 7.347880794884120722E-16, 0.000000000000000000 ) ) ;
#41 = DIRECTION ( 'NONE',  ( 1.000000000000000000, 0.000000000000000000, 0.000000000000000000 ) ) ;
#42 = ORIENTED_EDGE ( 'NONE', *, *, #82, .F. ) ;
#43 = DIRECTION ( 'NONE',  ( -0.000000000000000000, -0.000000000000000000, -1.000000000000000000 ) ) ;
#44 = AXIS2_PLACEMENT_3D ( 'NONE', #13, #90, #278 ) ;
#45 = EDGE_CURVE ( 'NONE', #283, #205, #140, .T. ) ;
#46 = DIRECTION ( 'NONE',  ( -1.000000000000000000, 1.224646799147353454E-16, 0.000000000000000000 ) ) ;
#47 = VECTOR ( 'NONE', #43, 1000.000000000000000 ) ;
#48 = DESIGN_CONTEXT ( 'detailed design', #237, 'design' ) ;
#49 = CARTESIAN_POINT ( 'NONE',  ( 0.000000000000000000, 0.000000000000000000, 5.000000000000000000 ) ) ;
#50 = CARTESIAN_POINT ( 'NONE',  ( -6.000000000000000888, 0.000000000000000000, 0.000000000000000000 ) ) ;
#51 = AXIS2_PLACEMENT_3D ( 'NONE', #151, #307, #195 ) ;
#52 = DIRECTION ( 'NONE',  ( -0.000000000000000000, -0.000000000000000000, -1.000000000000000000 ) ) ;
#53 = CC_DESIGN_PERSON_AND_ORGANIZATION_ASSIGNMENT ( #291, #56, ( #137 ) ) ;
#54 = DIRECTION ( 'NONE',  ( 0.000000000000000000, 0.000000000000000000, 1.000000000000000000 ) ) ;
#55 = FACE_OUTER_BOUND ( 'NONE', #247, .T. ) ;
#56 = PERSON_AND_ORGANIZATION_ROLE ( 'design_supplier' ) ;
#57 = DIRECTION ( 'NONE',  ( 1.000000000000000000, 0.000000000000000000, 0.000000000000000000 ) ) ;
#58 = VERTEX_POINT ( 'NONE', #40 ) ;
#59 = AXIS2_PLACEMENT_3D ( 'NONE', #235, #210, #69 ) ;
#60 = PERSON_AND_ORGANIZATION ( #203, #272 ) ;
#61 = LOCAL_TIME ( 12, 5, 28.00000000000000000, #79 ) ;
#62 = DATE_AND_TIME ( #30, #182 ) ;
#63 = EDGE_LOOP ( 'NONE', ( #12, #158 ) ) ;
#64 = CIRCLE ( 'NONE', #59, 6.000000000000000888 ) ;
#65 = DIRECTION ( 'NONE',  ( 1.000000000000000000, 0.000000000000000000, 0.000000000000000000 ) ) ;
#66 = EDGE_CURVE ( 'NONE', #234, #81, #254, .T. ) ;
#67 = CARTESIAN_POINT ( 'NONE',  ( -3.750000000000000000, 0.000000000000000000, 5.200000000000009948 ) ) ;
#68 = ORIENTED_EDGE ( 'NONE', *, *, #20, .F. ) ;
#69 = DIRECTION ( 'NONE',  ( 1.000000000000000000, 0.000000000000000000, 0.000000000000000000 ) ) ;
#70 = VERTEX_POINT ( 'NONE', #232 ) ;
#71 = APPROVAL_PERSON_ORGANIZATION ( #160, #134, #224 ) ;
#72 = DIRECTION ( 'NONE',  ( -0.000000000000000000, -0.000000000000000000, -1.000000000000000000 ) ) ;
#73 = DIRECTION ( 'NONE',  ( 0.000000000000000000, 0.000000000000000000, 1.000000000000000000 ) ) ;
#74 = PRODUCT_RELATED_PRODUCT_CATEGORY ( 'detail', '', ( #183 ) ) ;
#75 = FACE_OUTER_BOUND ( 'NONE', #266, .T. ) ;
#76 = CARTESIAN_POINT ( 'NONE',  ( 0.000000000000000000, 0.000000000000000000, 205.0000000000000284 ) ) ;
#77 = DIRECTION ( 'NONE',  ( 1.000000000000000000, 0.000000000000000000, -0.000000000000000000 ) ) ;
#78 = EDGE_CURVE ( 'NONE', #267, #58, #286, .T. ) ;
#79 = COORDINATED_UNIVERSAL_TIME_OFFSET ( 1, 0, .AHEAD. ) ;
#80 = AXIS2_PLACEMENT_3D ( 'NONE', #169, #73, #150 ) ;
#81 = VERTEX_POINT ( 'NONE', #88 ) ;
#82 = EDGE_CURVE ( 'NONE', #81, #58, #143, .T. ) ;
#83 = PERSON_AND_ORGANIZATION ( #203, #272 ) ;
#84 = AXIS2_PLACEMENT_3D ( 'NONE', #191, #141, #65 ) ;
#85 = APPROVAL_STATUS ( 'not_yet_approved' ) ;
#86 = CIRCLE ( 'NONE', #172, 3.949999999999999734 ) ;
#87 = DATE_AND_TIME ( #297, #61 ) ;
#88 = CARTESIAN_POINT ( 'NONE',  ( 6.000000000000000888, 7.347880794884120722E-16, 5.000000000000000000 ) ) ;
#89 = CC_DESIGN_DATE_AND_TIME_ASSIGNMENT ( #87, #157, ( #168 ) ) ;
#90 = DIRECTION ( 'NONE',  ( -0.000000000000000000, -0.000000000000000000, -1.000000000000000000 ) ) ;
#91 = CIRCLE ( 'NONE', #212, 3.750000000000000000 ) ;
#92 = EDGE_LOOP ( 'NONE', ( #225, #258, #35, #304 ) ) ;
#93 = ORIENTED_EDGE ( 'NONE', *, *, #78, .F. ) ;
#94 = ORIENTED_EDGE ( 'NONE', *, *, #25, .F. ) ;
#95 = FACE_OUTER_BOUND ( 'NONE', #274, .T. ) ;
#96 = AXIS2_PLACEMENT_3D ( 'NONE', #264, #54, #21 ) ;
#97 = EDGE_CURVE ( 'NONE', #70, #138, #223, .T. ) ;
#98 = FACE_OUTER_BOUND ( 'NONE', #162, .T. ) ;
#99 = DIRECTION ( 'NONE',  ( -0.000000000000000000, -0.000000000000000000, -1.000000000000000000 ) ) ;
#100 = DIRECTION ( 'NONE',  ( 0.000000000000000000, 0.000000000000000000, 1.000000000000000000 ) ) ;
#101 = LOCAL_TIME ( 12, 5, 28.00000000000000000, #292 ) ;
#102 = DIRECTION ( 'NONE',  ( -0.000000000000000000, -0.000000000000000000, -1.000000000000000000 ) ) ;
#103 = COORDINATED_UNIVERSAL_TIME_OFFSET ( 1, 0, .AHEAD. ) ;
#104 = AXIS2_PLACEMENT_3D ( 'NONE', #114, #163, #46 ) ;
#105 = CALENDAR_DATE ( 2022, 7, 7 ) ;
#106 = ORIENTED_EDGE ( 'NONE', *, *, #14, .F. ) ;
#107 = AXIS2_PLACEMENT_3D ( 'NONE', #240, #102, #199 ) ;
#108 = EDGE_CURVE ( 'NONE', #192, #205, #293, .T. ) ;
#109 = PERSON_AND_ORGANIZATION ( #203, #272 ) ;
#110 = ORIENTED_EDGE ( 'NONE', *, *, #206, .F. ) ;
#111 =( NAMED_UNIT ( * ) PLANE_ANGLE_UNIT ( ) SI_UNIT ( $, .RADIAN. ) );
#112 = ORIENTED_EDGE ( 'NONE', *, *, #82, .T. ) ;
#113 = PERSON_AND_ORGANIZATION_ROLE ( 'creator' ) ;
#114 = CARTESIAN_POINT ( 'NONE',  ( -3.949999999999999734, 4.837354856632044071E-16, 5.200000000000009948 ) ) ;
#115 = CC_DESIGN_PERSON_AND_ORGANIZATION_ASSIGNMENT ( #109, #113, ( #168 ) ) ;
#116 = ORIENTED_EDGE ( 'NONE', *, *, #108, .T. ) ;
#117 = AXIS2_PLACEMENT_3D ( 'NONE', #302, #280, #277 ) ;
#118 = CARTESIAN_POINT ( 'NONE',  ( 3.949999999999999734, 0.000000000000000000, 5.200000000000009948 ) ) ;
#119 = DIRECTION ( 'NONE',  ( 1.000000000000000000, 0.000000000000000000, 0.000000000000000000 ) ) ;
#120 = DIRECTION ( 'NONE',  ( 0.000000000000000000, -1.000000000000000000, 0.000000000000000000 ) ) ;
#121 = FACE_OUTER_BOUND ( 'NONE', #249, .T. ) ;
#122 = DIRECTION ( 'NONE',  ( 1.000000000000000000, 0.000000000000000000, 0.000000000000000000 ) ) ;
#123 = CC_DESIGN_PERSON_AND_ORGANIZATION_ASSIGNMENT ( #60, #155, ( #208 ) ) ;
#124 = DIRECTION ( 'NONE',  ( 0.000000000000000000, 0.000000000000000000, 1.000000000000000000 ) ) ;
#125 = AXIS2_PLACEMENT_3D ( 'NONE', #300, #17, #119 ) ;
#126 = DIRECTION ( 'NONE',  ( -0.000000000000000000, -0.000000000000000000, -1.000000000000000000 ) ) ;
#127 = LINE ( 'NONE', #236, #38 ) ;
#128 = TOROIDAL_SURFACE ( 'NONE', #216, 3.949999999999999734, 0.2000000000000000111 ) ;
#129 = DIRECTION ( 'NONE',  ( 0.000000000000000000, 0.000000000000000000, 1.000000000000000000 ) ) ;
#130 = APPROVAL_STATUS ( 'not_yet_approved' ) ;
#131 = ORIENTED_EDGE ( 'NONE', *, *, #108, .F. ) ;
#132 = ADVANCED_FACE ( 'NONE', ( #214 ), #186, .T. ) ;
#133 = PERSON_AND_ORGANIZATION ( #203, #272 ) ;
#134 = APPROVAL ( #130, 'NEURÈENÝ' ) ;
#135 = AXIS2_PLACEMENT_3D ( 'NONE', #215, #72, #306 ) ;
#136 = VERTEX_POINT ( 'NONE', #67 ) ;
#137 = PRODUCT_DEFINITION_FORMATION_WITH_SPECIFIED_SOURCE ( 'LIBOVOLNÝ', '', #183, .NOT_KNOWN. ) ;
#138 = VERTEX_POINT ( 'NONE', #231 ) ;
#139 = DIRECTION ( 'NONE',  ( 0.000000000000000000, 0.000000000000000000, -1.000000000000000000 ) ) ;
#140 = CIRCLE ( 'NONE', #84, 3.949999999999999734 ) ;
#141 = DIRECTION ( 'NONE',  ( -0.000000000000000000, -0.000000000000000000, -1.000000000000000000 ) ) ;
#142 = CC_DESIGN_APPROVAL ( #31, ( #168 ) ) ;
#143 = LINE ( 'NONE', #229, #47 ) ;
#144 = PRODUCT_DEFINITION_SHAPE ( 'NONE', 'NONE',  #168 ) ;
#145 = MANIFOLD_SOLID_BREP ( 'Zaoblit1', #15 ) ;
#146 = ORIENTED_EDGE ( 'NONE', *, *, #147, .F. ) ;
#147 = EDGE_CURVE ( 'NONE', #205, #283, #86, .T. ) ;
#148 = DIRECTION ( 'NONE',  ( -1.000000000000000000, 0.000000000000000000, 0.000000000000000000 ) ) ;
#149 = APPLICATION_CONTEXT ( 'configuration controlled 3d designs of mechanical parts and assemblies' ) ;
#150 = DIRECTION ( 'NONE',  ( 1.000000000000000000, 0.000000000000000000, -0.000000000000000000 ) ) ;
#151 = CARTESIAN_POINT ( 'NONE',  ( 0.000000000000000000, 0.000000000000000000, 5.200000000000009948 ) ) ;
#152 = CARTESIAN_POINT ( 'NONE',  ( -6.000000000000000888, 0.000000000000000000, 5.000000000000000000 ) ) ;
#153 = ADVANCED_FACE ( 'NONE', ( #98 ), #290, .T. ) ;
#154 = DIRECTION ( 'NONE',  ( 1.000000000000000000, 0.000000000000000000, 0.000000000000000000 ) ) ;
#155 = PERSON_AND_ORGANIZATION_ROLE ( 'classification_officer' ) ;
#156 = AXIS2_PLACEMENT_3D ( 'NONE', #305, #165, #19 ) ;
#157 = DATE_TIME_ROLE ( 'creation_date' ) ;
#158 = ORIENTED_EDGE ( 'NONE', *, *, #45, .T. ) ;
#159 = CIRCLE ( 'NONE', #96, 6.000000000000000888 ) ;
#160 = PERSON_AND_ORGANIZATION ( #203, #272 ) ;
#161 = SHAPE_DEFINITION_REPRESENTATION ( #144, #189 ) ;
#162 = EDGE_LOOP ( 'NONE', ( #164, #250, #251, #188 ) ) ;
#163 = DIRECTION ( 'NONE',  ( 1.224646799147353207E-16, 1.000000000000000000, -0.000000000000000000 ) ) ;
#164 = ORIENTED_EDGE ( 'NONE', *, *, #97, .F. ) ;
#165 = DIRECTION ( 'NONE',  ( 0.000000000000000000, 0.000000000000000000, 1.000000000000000000 ) ) ;
#166 =( GEOMETRIC_REPRESENTATION_CONTEXT ( 3 ) GLOBAL_UNCERTAINTY_ASSIGNED_CONTEXT ( ( #217 ) ) GLOBAL_UNIT_ASSIGNED_CONTEXT ( ( #248, #111, #33 ) ) REPRESENTATION_CONTEXT ( 'NONE', 'WORKASPACE' ) );
#167 = ORIENTED_EDGE ( 'NONE', *, *, #279, .F. ) ;
#168 = PRODUCT_DEFINITION ( 'NEZNÁMÝ', '', #137, #48 ) ;
#169 = CARTESIAN_POINT ( 'NONE',  ( 0.000000000000000000, 0.000000000000000000, 5.000000000000000000 ) ) ;
#170 = CARTESIAN_POINT ( 'NONE',  ( 3.750000000000000000, 4.592425496802573972E-16, 5.200000000000009948 ) ) ;
#171 = FACE_OUTER_BOUND ( 'NONE', #296, .T. ) ;
#172 = AXIS2_PLACEMENT_3D ( 'NONE', #49, #126, #175 ) ;
#173 = CARTESIAN_POINT ( 'NONE',  ( 0.000000000000000000, 0.000000000000000000, 205.0000000000000284 ) ) ;
#174 = ADVANCED_FACE ( 'NONE', ( #121 ), #28, .F. ) ;
#175 = DIRECTION ( 'NONE',  ( 1.000000000000000000, 0.000000000000000000, 0.000000000000000000 ) ) ;
#176 = ORIENTED_EDGE ( 'NONE', *, *, #241, .F. ) ;
#177 = CC_DESIGN_PERSON_AND_ORGANIZATION_ASSIGNMENT ( #83, #204, ( #137 ) ) ;
#178 = ORIENTED_EDGE ( 'NONE', *, *, #275, .T. ) ;
#179 = DATE_AND_TIME ( #200, #265 ) ;
#180 = APPROVAL_DATE_TIME ( #62, #230 ) ;
#181 = EDGE_CURVE ( 'NONE', #138, #136, #127, .T. ) ;
#182 = LOCAL_TIME ( 12, 5, 28.00000000000000000, #103 ) ;
#183 = PRODUCT ( 'b5bf', 'b5bf', '', ( #184 ) ) ;
#184 = MECHANICAL_CONTEXT ( 'NONE', #149, 'mechanical' ) ;
#185 = ORIENTED_EDGE ( 'NONE', *, *, #78, .T. ) ;
#186 = CYLINDRICAL_SURFACE ( 'NONE', #44, 6.000000000000000888 ) ;
#187 = AXIS2_PLACEMENT_3D ( 'NONE', #253, #209, #41 ) ;
#188 = ORIENTED_EDGE ( 'NONE', *, *, #181, .F. ) ;
#189 = ADVANCED_BREP_SHAPE_REPRESENTATION ( 'b5bf', ( #145, #6 ), #166 ) ;
#190 = CC_DESIGN_DATE_AND_TIME_ASSIGNMENT ( #246, #270, ( #208 ) ) ;
#191 = CARTESIAN_POINT ( 'NONE',  ( 0.000000000000000000, 0.000000000000000000, 5.000000000000000000 ) ) ;
#192 = VERTEX_POINT ( 'NONE', #170 ) ;
#193 = ORIENTED_EDGE ( 'NONE', *, *, #97, .T. ) ;
#194 = CC_DESIGN_SECURITY_CLASSIFICATION ( #208, ( #137 ) ) ;
#195 = DIRECTION ( 'NONE',  ( 1.000000000000000000, 0.000000000000000000, 0.000000000000000000 ) ) ;
#196 = LINE ( 'NONE', #152, #271 ) ;
#197 = DIRECTION ( 'NONE',  ( 1.000000000000000000, 0.000000000000000000, -0.000000000000000000 ) ) ;
#198 = CARTESIAN_POINT ( 'NONE',  ( 0.000000000000000000, 0.000000000000000000, 0.000000000000000000 ) ) ;
#199 = DIRECTION ( 'NONE',  ( -1.000000000000000000, 0.000000000000000000, 0.000000000000000000 ) ) ;
#200 = CALENDAR_DATE ( 2022, 7, 7 ) ;
#201 = DATE_AND_TIME ( #105, #202 ) ;
#202 = LOCAL_TIME ( 12, 5, 28.00000000000000000, #5 ) ;
#203 = PERSON ( 'NEURÈENÝ', 'NEURÈENÝ', 'NEURÈENÝ', ('NEURÈENÝ'), ('NEURÈENÝ'), ('NEURÈENÝ') ) ;
#204 = PERSON_AND_ORGANIZATION_ROLE ( 'creator' ) ;
#205 = VERTEX_POINT ( 'NONE', #263 ) ;
#206 = EDGE_CURVE ( 'NONE', #192, #136, #288, .T. ) ;
#207 = PERSON_AND_ORGANIZATION ( #203, #272 ) ;
#208 = SECURITY_CLASSIFICATION ( '', '', #268 ) ;
#209 = DIRECTION ( 'NONE',  ( 0.000000000000000000, 0.000000000000000000, 1.000000000000000000 ) ) ;
#210 = DIRECTION ( 'NONE',  ( 0.000000000000000000, 0.000000000000000000, 1.000000000000000000 ) ) ;
#211 = EDGE_LOOP ( 'NONE', ( #176, #112, #269, #167 ) ) ;
#212 = AXIS2_PLACEMENT_3D ( 'NONE', #285, #284, #24 ) ;
#213 = ORIENTED_EDGE ( 'NONE', *, *, #279, .T. ) ;
#214 = FACE_OUTER_BOUND ( 'NONE', #211, .T. ) ;
#215 = CARTESIAN_POINT ( 'NONE',  ( 0.000000000000000000, 0.000000000000000000, 205.0000000000000284 ) ) ;
#216 = AXIS2_PLACEMENT_3D ( 'NONE', #261, #124, #154 ) ;
#217 = UNCERTAINTY_MEASURE_WITH_UNIT (LENGTH_MEASURE( 1.000000000000000082E-05 ), #248, 'distance_accuracy_value', 'NONE');
#218 = DIRECTION ( 'NONE',  ( -0.000000000000000000, -0.000000000000000000, -1.000000000000000000 ) ) ;
#219 = CYLINDRICAL_SURFACE ( 'NONE', #135, 3.750000000000000000 ) ;
#220 = CC_DESIGN_APPROVAL ( #230, ( #137 ) ) ;
#221 = CARTESIAN_POINT ( 'NONE',  ( -3.949999999999999734, 4.837354856632044071E-16, 5.000000000000005329 ) ) ;
#222 = APPLICATION_PROTOCOL_DEFINITION ( 'international standard', 'config_control_design', 1994, #149 ) ;
#223 = CIRCLE ( 'NONE', #156, 3.750000000000000000 ) ;
#224 = APPROVAL_ROLE ( '' ) ;
#225 = ORIENTED_EDGE ( 'NONE', *, *, #39, .F. ) ;
#226 = PERSON_AND_ORGANIZATION_ROLE ( 'design_owner' ) ;
#227 = AXIS2_PLACEMENT_3D ( 'NONE', #198, #1, #77 ) ;
#228 = APPROVAL_STATUS ( 'not_yet_approved' ) ;
#229 = CARTESIAN_POINT ( 'NONE',  ( 6.000000000000000888, 7.347880794884120722E-16, 5.000000000000000000 ) ) ;
#230 = APPROVAL ( #85, 'NEURÈENÝ' ) ;
#231 = CARTESIAN_POINT ( 'NONE',  ( -3.750000000000000000, 0.000000000000000000, 205.0000000000000284 ) ) ;
#232 = CARTESIAN_POINT ( 'NONE',  ( 3.750000000000000000, 4.592425496802573972E-16, 205.0000000000000284 ) ) ;
#233 = AXIS2_PLACEMENT_3D ( 'NONE', #76, #238, #197 ) ;
#234 = VERTEX_POINT ( 'NONE', #287 ) ;
#235 = CARTESIAN_POINT ( 'NONE',  ( 0.000000000000000000, 0.000000000000000000, 0.000000000000000000 ) ) ;
#236 = CARTESIAN_POINT ( 'NONE',  ( -3.750000000000000000, 0.000000000000000000, 205.0000000000000284 ) ) ;
#237 = APPLICATION_CONTEXT ( 'configuration controlled 3d designs of mechanical parts and assemblies' ) ;
#238 = DIRECTION ( 'NONE',  ( 0.000000000000000000, 0.000000000000000000, 1.000000000000000000 ) ) ;
#239 = CC_DESIGN_PERSON_AND_ORGANIZATION_ASSIGNMENT ( #133, #226, ( #183 ) ) ;
#240 = CARTESIAN_POINT ( 'NONE',  ( 0.000000000000000000, 0.000000000000000000, 5.000000000000000000 ) ) ;
#241 = EDGE_CURVE ( 'NONE', #81, #234, #159, .T. ) ;
#242 = PLANE ( 'NONE',  #233 ) ;
#243 = CC_DESIGN_APPROVAL ( #134, ( #208 ) ) ;
#244 = CALENDAR_DATE ( 2022, 7, 7 ) ;
#245 = ADVANCED_FACE ( 'NONE', ( #55 ), #128, .F. ) ;
#246 = DATE_AND_TIME ( #244, #101 ) ;
#247 = EDGE_LOOP ( 'NONE', ( #106, #110, #116, #10 ) ) ;
#248 =( LENGTH_UNIT ( ) NAMED_UNIT ( * ) SI_UNIT ( .MILLI., .METRE. ) );
#249 = EDGE_LOOP ( 'NONE', ( #93, #68 ) ) ;
#250 = ORIENTED_EDGE ( 'NONE', *, *, #39, .T. ) ;
#251 = ORIENTED_EDGE ( 'NONE', *, *, #206, .T. ) ;
#252 = APPROVAL_PERSON_ORGANIZATION ( #207, #31, #3 ) ;
#253 = CARTESIAN_POINT ( 'NONE',  ( 0.000000000000000000, 0.000000000000000000, 5.000000000000000000 ) ) ;
#254 = CIRCLE ( 'NONE', #187, 6.000000000000000888 ) ;
#255 = DIRECTION ( 'NONE',  ( -0.000000000000000000, -0.000000000000000000, -1.000000000000000000 ) ) ;
#256 = LINE ( 'NONE', #16, #4 ) ;
#257 = ADVANCED_FACE ( 'NONE', ( #289 ), #219, .T. ) ;
#258 = ORIENTED_EDGE ( 'NONE', *, *, #275, .F. ) ;
#259 = FACE_OUTER_BOUND ( 'NONE', #8, .T. ) ;
#260 = ADVANCED_FACE ( 'NONE', ( #95 ), #298, .F. ) ;
#261 = CARTESIAN_POINT ( 'NONE',  ( 0.000000000000000000, 0.000000000000000000, 5.200000000000009948 ) ) ;
#262 = PLANE ( 'NONE',  #80 ) ;
#263 = CARTESIAN_POINT ( 'NONE',  ( 3.949999999999999734, 0.000000000000000000, 5.000000000000005329 ) ) ;
#264 = CARTESIAN_POINT ( 'NONE',  ( 0.000000000000000000, 0.000000000000000000, 5.000000000000000000 ) ) ;
#265 = LOCAL_TIME ( 12, 5, 28.00000000000000000, #273 ) ;
#266 = EDGE_LOOP ( 'NONE', ( #281, #32 ) ) ;
#267 = VERTEX_POINT ( 'NONE', #50 ) ;
#268 = SECURITY_CLASSIFICATION_LEVEL ( 'unclassified' ) ;
#269 = ORIENTED_EDGE ( 'NONE', *, *, #20, .T. ) ;
#270 = DATE_TIME_ROLE ( 'classification_date' ) ;
#271 = VECTOR ( 'NONE', #52, 1000.000000000000000 ) ;
#272 = ORGANIZATION ( 'NEURÈENÝ', 'NEURÈENÝ', '' ) ;
#273 = COORDINATED_UNIVERSAL_TIME_OFFSET ( 1, 0, .AHEAD. ) ;
#274 = EDGE_LOOP ( 'NONE', ( #94, #303, #146, #131 ) ) ;
#275 = EDGE_CURVE ( 'NONE', #138, #70, #91, .T. ) ;
#276 = CIRCLE ( 'NONE', #117, 3.750000000000000000 ) ;
#277 = DIRECTION ( 'NONE',  ( 1.000000000000000000, 0.000000000000000000, 0.000000000000000000 ) ) ;
#278 = DIRECTION ( 'NONE',  ( -1.000000000000000000, 0.000000000000000000, 0.000000000000000000 ) ) ;
#279 = EDGE_CURVE ( 'NONE', #234, #267, #196, .T. ) ;
#280 = DIRECTION ( 'NONE',  ( 0.000000000000000000, 0.000000000000000000, 1.000000000000000000 ) ) ;
#281 = ORIENTED_EDGE ( 'NONE', *, *, #66, .T. ) ;
#282 = ADVANCED_FACE ( 'NONE', ( #26, #75 ), #262, .T. ) ;
#283 = VERTEX_POINT ( 'NONE', #221 ) ;
#284 = DIRECTION ( 'NONE',  ( 0.000000000000000000, 0.000000000000000000, 1.000000000000000000 ) ) ;
#285 = CARTESIAN_POINT ( 'NONE',  ( 0.000000000000000000, 0.000000000000000000, 205.0000000000000284 ) ) ;
#286 = CIRCLE ( 'NONE', #125, 6.000000000000000888 ) ;
#287 = CARTESIAN_POINT ( 'NONE',  ( -6.000000000000000888, 0.000000000000000000, 5.000000000000000000 ) ) ;
#288 = CIRCLE ( 'NONE', #18, 3.750000000000000000 ) ;
#289 = FACE_OUTER_BOUND ( 'NONE', #92, .T. ) ;
#290 = CYLINDRICAL_SURFACE ( 'NONE', #23, 3.750000000000000000 ) ;
#291 = PERSON_AND_ORGANIZATION ( #203, #272 ) ;
#292 = COORDINATED_UNIVERSAL_TIME_OFFSET ( 1, 0, .AHEAD. ) ;
#293 = CIRCLE ( 'NONE', #27, 0.1999999999999996503 ) ;
#294 = APPROVAL_ROLE ( '' ) ;
#295 = ADVANCED_FACE ( 'NONE', ( #259 ), #242, .T. ) ;
#296 = EDGE_LOOP ( 'NONE', ( #42, #37, #213, #185 ) ) ;
#297 = CALENDAR_DATE ( 2022, 7, 7 ) ;
#298 = TOROIDAL_SURFACE ( 'NONE', #51, 3.949999999999999734, 0.2000000000000000111 ) ;
#299 = ADVANCED_FACE ( 'NONE', ( #171 ), #2, .T. ) ;
#300 = CARTESIAN_POINT ( 'NONE',  ( 0.000000000000000000, 0.000000000000000000, 0.000000000000000000 ) ) ;
#301 = CIRCLE ( 'NONE', #104, 0.1999999999999996503 ) ;
#302 = CARTESIAN_POINT ( 'NONE',  ( 0.000000000000000000, 0.000000000000000000, 5.200000000000009948 ) ) ;
#303 = ORIENTED_EDGE ( 'NONE', *, *, #14, .T. ) ;
#304 = ORIENTED_EDGE ( 'NONE', *, *, #25, .T. ) ;
#305 = CARTESIAN_POINT ( 'NONE',  ( 0.000000000000000000, 0.000000000000000000, 205.0000000000000284 ) ) ;
#306 = DIRECTION ( 'NONE',  ( -1.000000000000000000, 0.000000000000000000, 0.000000000000000000 ) ) ;
#307 = DIRECTION ( 'NONE',  ( 0.000000000000000000, 0.000000000000000000, 1.000000000000000000 ) ) ;
ENDSEC;
END-ISO-10303-21;
