ISO-10303-21;
HEADER;
FILE_DESCRIPTION (( 'STEP AP203' ),
    '1' );
FILE_NAME ('46da.STEP',
    '2022-07-07T10:20:19',
    ( '' ),
    ( '' ),
    'SwSTEP 2.0',
    'SolidWorks 2019',
    '' );
FILE_SCHEMA (( 'CONFIG_CONTROL_DESIGN' ));
ENDSEC;

DATA;
#1 = DIRECTION ( 'NONE',  ( 0.000000000000000000, 0.000000000000000000, 1.000000000000000000 ) ) ;
#2 = CIRCLE ( 'NONE', #244, 5.000000000000000000 ) ;
#3 = VERTEX_POINT ( 'NONE', #192 ) ;
#4 = FACE_OUTER_BOUND ( 'NONE', #130, .T. ) ;
#5 = CC_DESIGN_PERSON_AND_ORGANIZATION_ASSIGNMENT ( #89, #272, ( #73 ) ) ;
#6 = EDGE_CURVE ( 'NONE', #188, #176, #20, .T. ) ;
#7 = ORIENTED_EDGE ( 'NONE', *, *, #56, .F. ) ;
#8 = CIRCLE ( 'NONE', #13, 5.000000000000000000 ) ;
#9 = ORIENTED_EDGE ( 'NONE', *, *, #34, .F. ) ;
#10 = MANIFOLD_SOLID_BREP ( 'Zaoblit1', #154 ) ;
#11 = CALENDAR_DATE ( 2022, 7, 7 ) ;
#12 = ORIENTED_EDGE ( 'NONE', *, *, #6, .F. ) ;
#13 = AXIS2_PLACEMENT_3D ( 'NONE', #256, #207, #49 ) ;
#14 = EDGE_LOOP ( 'NONE', ( #295, #241, #287, #191 ) ) ;
#15 = PERSON_AND_ORGANIZATION ( #294, #269 ) ;
#16 = APPLICATION_PROTOCOL_DEFINITION ( 'international standard', 'config_control_design', 1994, #185 ) ;
#17 = CARTESIAN_POINT ( 'NONE',  ( -5.000000000000000000, 0.000000000000000000, 0.000000000000000000 ) ) ;
#18 = CARTESIAN_POINT ( 'NONE',  ( 0.000000000000000000, 0.000000000000000000, 3.199999999999994404 ) ) ;
#19 = FACE_OUTER_BOUND ( 'NONE', #245, .T. ) ;
#20 = CIRCLE ( 'NONE', #40, 5.000000000000000000 ) ;
#21 = CARTESIAN_POINT ( 'NONE',  ( 0.000000000000000000, 0.000000000000000000, 3.000000000000000000 ) ) ;
#22 = AXIS2_PLACEMENT_3D ( 'NONE', #118, #187, #230 ) ;
#23 = CC_DESIGN_PERSON_AND_ORGANIZATION_ASSIGNMENT ( #255, #204, ( #286 ) ) ;
#24 = DIRECTION ( 'NONE',  ( -1.000000000000000000, 0.000000000000000000, 0.000000000000000000 ) ) ;
#25 = AXIS2_PLACEMENT_3D ( 'NONE', #58, #285, #108 ) ;
#26 = VERTEX_POINT ( 'NONE', #53 ) ;
#27 = TOROIDAL_SURFACE ( 'NONE', #22, 2.700000000000000178, 0.2000000000000000111 ) ;
#28 = DIRECTION ( 'NONE',  ( 0.000000000000000000, 0.000000000000000000, 1.000000000000000000 ) ) ;
#29 = CC_DESIGN_PERSON_AND_ORGANIZATION_ASSIGNMENT ( #66, #70, ( #252 ) ) ;
#30 = EDGE_CURVE ( 'NONE', #36, #26, #83, .T. ) ;
#31 = ORIENTED_EDGE ( 'NONE', *, *, #64, .T. ) ;
#32 = VECTOR ( 'NONE', #167, 1000.000000000000000 ) ;
#33 = DIRECTION ( 'NONE',  ( 1.000000000000000000, 0.000000000000000000, 0.000000000000000000 ) ) ;
#34 = EDGE_CURVE ( 'NONE', #264, #225, #249, .T. ) ;
#35 = ORIENTED_EDGE ( 'NONE', *, *, #197, .T. ) ;
#36 = VERTEX_POINT ( 'NONE', #82 ) ;
#37 = EDGE_CURVE ( 'NONE', #153, #176, #170, .T. ) ;
#38 = ORIENTED_EDGE ( 'NONE', *, *, #30, .T. ) ;
#39 = DATE_AND_TIME ( #273, #81 ) ;
#40 = AXIS2_PLACEMENT_3D ( 'NONE', #128, #289, #166 ) ;
#41 = ORIENTED_EDGE ( 'NONE', *, *, #221, .T. ) ;
#42 = CALENDAR_DATE ( 2022, 7, 7 ) ;
#43 = FACE_OUTER_BOUND ( 'NONE', #86, .T. ) ;
#44 = DIRECTION ( 'NONE',  ( 0.000000000000000000, 0.000000000000000000, 1.000000000000000000 ) ) ;
#45 =( GEOMETRIC_REPRESENTATION_CONTEXT ( 3 ) GLOBAL_UNCERTAINTY_ASSIGNED_CONTEXT ( ( #122 ) ) GLOBAL_UNIT_ASSIGNED_CONTEXT ( ( #247, #227, #180 ) ) REPRESENTATION_CONTEXT ( 'NONE', 'WORKASPACE' ) );
#46 = SECURITY_CLASSIFICATION_LEVEL ( 'unclassified' ) ;
#47 = APPROVAL_STATUS ( 'not_yet_approved' ) ;
#48 = FACE_OUTER_BOUND ( 'NONE', #129, .T. ) ;
#49 = DIRECTION ( 'NONE',  ( 1.000000000000000000, 0.000000000000000000, 0.000000000000000000 ) ) ;
#50 = AXIS2_PLACEMENT_3D ( 'NONE', #149, #238, #103 ) ;
#51 = PLANE ( 'NONE',  #195 ) ;
#52 = CARTESIAN_POINT ( 'NONE',  ( -2.500000000000000000, 0.000000000000000000, 128.0000000000000000 ) ) ;
#53 = CARTESIAN_POINT ( 'NONE',  ( -2.500000000000000000, 0.000000000000000000, 3.199999999999994404 ) ) ;
#54 = FACE_OUTER_BOUND ( 'NONE', #126, .T. ) ;
#55 = AXIS2_PLACEMENT_3D ( 'NONE', #229, #297, #231 ) ;
#56 = EDGE_CURVE ( 'NONE', #248, #214, #145, .T. ) ;
#57 = CARTESIAN_POINT ( 'NONE',  ( 0.000000000000000000, 0.000000000000000000, 128.0000000000000000 ) ) ;
#58 = CARTESIAN_POINT ( 'NONE',  ( 0.000000000000000000, 0.000000000000000000, 3.000000000000000000 ) ) ;
#59 = AXIS2_PLACEMENT_3D ( 'NONE', #150, #217, #124 ) ;
#60 = AXIS2_PLACEMENT_3D ( 'NONE', #274, #163, #251 ) ;
#61 = EDGE_CURVE ( 'NONE', #225, #26, #215, .T. ) ;
#62 = ORIENTED_EDGE ( 'NONE', *, *, #235, .F. ) ;
#63 = DATE_TIME_ROLE ( 'classification_date' ) ;
#64 = EDGE_CURVE ( 'NONE', #214, #248, #173, .T. ) ;
#65 = AXIS2_PLACEMENT_3D ( 'NONE', #178, #206, #90 ) ;
#66 = PERSON_AND_ORGANIZATION ( #294, #269 ) ;
#67 = CARTESIAN_POINT ( 'NONE',  ( 2.500000000000000000, 3.061616997868383141E-16, 128.0000000000000000 ) ) ;
#68 = ORIENTED_EDGE ( 'NONE', *, *, #95, .T. ) ;
#69 = MECHANICAL_CONTEXT ( 'NONE', #185, 'mechanical' ) ;
#70 = PERSON_AND_ORGANIZATION_ROLE ( 'design_supplier' ) ;
#71 = DATE_TIME_ROLE ( 'creation_date' ) ;
#72 = CARTESIAN_POINT ( 'NONE',  ( 0.000000000000000000, 0.000000000000000000, 0.000000000000000000 ) ) ;
#73 = SECURITY_CLASSIFICATION ( '', '', #46 ) ;
#74 = CARTESIAN_POINT ( 'NONE',  ( 2.500000000000000000, 3.061616997868383141E-16, 128.0000000000000000 ) ) ;
#75 = CYLINDRICAL_SURFACE ( 'NONE', #104, 2.500000000000000000 ) ;
#76 = CC_DESIGN_PERSON_AND_ORGANIZATION_ASSIGNMENT ( #208, #250, ( #266 ) ) ;
#77 = DIRECTION ( 'NONE',  ( 1.000000000000000000, 0.000000000000000000, 0.000000000000000000 ) ) ;
#78 = ORIENTED_EDGE ( 'NONE', *, *, #120, .F. ) ;
#79 = ORIENTED_EDGE ( 'NONE', *, *, #190, .F. ) ;
#80 = ORIENTED_EDGE ( 'NONE', *, *, #197, .F. ) ;
#81 = LOCAL_TIME ( 12, 20, 19.00000000000000000, #279 ) ;
#82 = CARTESIAN_POINT ( 'NONE',  ( 2.500000000000000000, 3.061616997868383141E-16, 3.199999999999994404 ) ) ;
#83 = CIRCLE ( 'NONE', #281, 2.500000000000000000 ) ;
#84 = PRODUCT_RELATED_PRODUCT_CATEGORY ( 'detail', '', ( #286 ) ) ;
#85 = ADVANCED_FACE ( 'NONE', ( #262, #54 ), #240, .T. ) ;
#86 = EDGE_LOOP ( 'NONE', ( #78, #111, #7, #80 ) ) ;
#87 = APPROVAL_ROLE ( '' ) ;
#88 = ORIENTED_EDGE ( 'NONE', *, *, #300, .F. ) ;
#89 = PERSON_AND_ORGANIZATION ( #294, #269 ) ;
#90 = DIRECTION ( 'NONE',  ( 1.000000000000000000, 0.000000000000000000, 0.000000000000000000 ) ) ;
#91 = DESIGN_CONTEXT ( 'detailed design', #202, 'design' ) ;
#92 = CALENDAR_DATE ( 2022, 7, 7 ) ;
#93 = CALENDAR_DATE ( 2022, 7, 7 ) ;
#94 = LINE ( 'NONE', #254, #98 ) ;
#95 = EDGE_CURVE ( 'NONE', #225, #264, #267, .T. ) ;
#96 = APPROVAL_ROLE ( '' ) ;
#97 = CARTESIAN_POINT ( 'NONE',  ( -5.000000000000000000, 0.000000000000000000, 3.000000000000000000 ) ) ;
#98 = VECTOR ( 'NONE', #157, 1000.000000000000000 ) ;
#99 = ADVANCED_FACE ( 'NONE', ( #4 ), #106, .T. ) ;
#100 = DIRECTION ( 'NONE',  ( 0.000000000000000000, 0.000000000000000000, -1.000000000000000000 ) ) ;
#101 = DIRECTION ( 'NONE',  ( -0.000000000000000000, -0.000000000000000000, -1.000000000000000000 ) ) ;
#102 = VECTOR ( 'NONE', #265, 1000.000000000000000 ) ;
#103 = DIRECTION ( 'NONE',  ( 1.000000000000000000, 0.000000000000000000, -0.000000000000000000 ) ) ;
#104 = AXIS2_PLACEMENT_3D ( 'NONE', #164, #259, #24 ) ;
#105 = ORIENTED_EDGE ( 'NONE', *, *, #30, .F. ) ;
#106 = CYLINDRICAL_SURFACE ( 'NONE', #123, 5.000000000000000000 ) ;
#107 = ORIENTED_EDGE ( 'NONE', *, *, #37, .F. ) ;
#108 = DIRECTION ( 'NONE',  ( 1.000000000000000000, 0.000000000000000000, 0.000000000000000000 ) ) ;
#109 = CC_DESIGN_APPROVAL ( #116, ( #73 ) ) ;
#110 = ORIENTED_EDGE ( 'NONE', *, *, #61, .T. ) ;
#111 = ORIENTED_EDGE ( 'NONE', *, *, #235, .T. ) ;
#112 = DIRECTION ( 'NONE',  ( -0.000000000000000000, -0.000000000000000000, -1.000000000000000000 ) ) ;
#113 = CARTESIAN_POINT ( 'NONE',  ( 5.000000000000000000, 6.123233995736766282E-16, 0.000000000000000000 ) ) ;
#114 = AXIS2_PLACEMENT_3D ( 'NONE', #72, #161, #165 ) ;
#115 = PLANE ( 'NONE',  #60 ) ;
#116 = APPROVAL ( #242, 'NEURÈENÝ' ) ;
#117 = DATE_AND_TIME ( #93, #283 ) ;
#118 = CARTESIAN_POINT ( 'NONE',  ( 0.000000000000000000, 0.000000000000000000, 3.199999999999994404 ) ) ;
#119 = LOCAL_TIME ( 12, 20, 19.00000000000000000, #159 ) ;
#120 = EDGE_CURVE ( 'NONE', #26, #36, #307, .T. ) ;
#121 = DIRECTION ( 'NONE',  ( 0.000000000000000000, 0.000000000000000000, 1.000000000000000000 ) ) ;
#122 = UNCERTAINTY_MEASURE_WITH_UNIT (LENGTH_MEASURE( 1.000000000000000082E-05 ), #247, 'distance_accuracy_value', 'NONE');
#123 = AXIS2_PLACEMENT_3D ( 'NONE', #21, #101, #305 ) ;
#124 = DIRECTION ( 'NONE',  ( 1.000000000000000000, 0.000000000000000000, 0.000000000000000000 ) ) ;
#125 = APPROVAL_PERSON_ORGANIZATION ( #253, #219, #140 ) ;
#126 = EDGE_LOOP ( 'NONE', ( #261, #132 ) ) ;
#127 = DIRECTION ( 'NONE',  ( 0.000000000000000000, 0.000000000000000000, 1.000000000000000000 ) ) ;
#128 = CARTESIAN_POINT ( 'NONE',  ( 0.000000000000000000, 0.000000000000000000, 0.000000000000000000 ) ) ;
#129 = EDGE_LOOP ( 'NONE', ( #62, #105, #35, #220 ) ) ;
#130 = EDGE_LOOP ( 'NONE', ( #79, #41, #199, #107 ) ) ;
#131 = PERSON_AND_ORGANIZATION ( #294, #269 ) ;
#132 = ORIENTED_EDGE ( 'NONE', *, *, #190, .T. ) ;
#133 = APPROVAL_DATE_TIME ( #203, #219 ) ;
#134 = LINE ( 'NONE', #67, #175 ) ;
#135 = AXIS2_PLACEMENT_3D ( 'NONE', #239, #127, #216 ) ;
#136 = ORIENTED_EDGE ( 'NONE', *, *, #120, .T. ) ;
#137 = DIRECTION ( 'NONE',  ( 0.000000000000000000, 0.000000000000000000, 1.000000000000000000 ) ) ;
#138 = CIRCLE ( 'NONE', #292, 0.2000000000000000944 ) ;
#139 = DIRECTION ( 'NONE',  ( -1.000000000000000000, 0.000000000000000000, 0.000000000000000000 ) ) ;
#140 = APPROVAL_ROLE ( '' ) ;
#141 = DIRECTION ( 'NONE',  ( 1.000000000000000000, 0.000000000000000000, 0.000000000000000000 ) ) ;
#142 = CC_DESIGN_PERSON_AND_ORGANIZATION_ASSIGNMENT ( #131, #179, ( #252 ) ) ;
#143 = ADVANCED_FACE ( 'NONE', ( #234 ), #51, .F. ) ;
#144 = CARTESIAN_POINT ( 'NONE',  ( 0.000000000000000000, 0.000000000000000000, 0.000000000000000000 ) ) ;
#145 = CIRCLE ( 'NONE', #59, 2.700000000000000178 ) ;
#146 = DIRECTION ( 'NONE',  ( -0.000000000000000000, -0.000000000000000000, -1.000000000000000000 ) ) ;
#147 = AXIS2_PLACEMENT_3D ( 'NONE', #18, #137, #162 ) ;
#148 = CARTESIAN_POINT ( 'NONE',  ( 0.000000000000000000, 0.000000000000000000, 3.199999999999994404 ) ) ;
#149 = CARTESIAN_POINT ( 'NONE',  ( 0.000000000000000000, 0.000000000000000000, 3.000000000000000000 ) ) ;
#150 = CARTESIAN_POINT ( 'NONE',  ( 0.000000000000000000, 0.000000000000000000, 3.000000000000000000 ) ) ;
#151 = EDGE_LOOP ( 'NONE', ( #223, #31 ) ) ;
#152 = LOCAL_TIME ( 12, 20, 19.00000000000000000, #246 ) ;
#153 = VERTEX_POINT ( 'NONE', #97 ) ;
#154 = CLOSED_SHELL ( 'NONE', ( #290, #278, #99, #201, #85, #143, #303, #276, #243 ) ) ;
#155 = FACE_OUTER_BOUND ( 'NONE', #194, .T. ) ;
#156 = COORDINATED_UNIVERSAL_TIME_OFFSET ( 1, 0, .AHEAD. ) ;
#157 = DIRECTION ( 'NONE',  ( -0.000000000000000000, -0.000000000000000000, -1.000000000000000000 ) ) ;
#158 = AXIS2_PLACEMENT_3D ( 'NONE', #277, #121, #77 ) ;
#159 = COORDINATED_UNIVERSAL_TIME_OFFSET ( 1, 0, .AHEAD. ) ;
#160 = LOCAL_TIME ( 12, 20, 19.00000000000000000, #156 ) ;
#161 = DIRECTION ( 'NONE',  ( 0.000000000000000000, 0.000000000000000000, 1.000000000000000000 ) ) ;
#162 = DIRECTION ( 'NONE',  ( 1.000000000000000000, 0.000000000000000000, 0.000000000000000000 ) ) ;
#163 = DIRECTION ( 'NONE',  ( 0.000000000000000000, 0.000000000000000000, 1.000000000000000000 ) ) ;
#164 = CARTESIAN_POINT ( 'NONE',  ( 0.000000000000000000, 0.000000000000000000, 128.0000000000000000 ) ) ;
#165 = DIRECTION ( 'NONE',  ( 1.000000000000000000, 0.000000000000000000, 0.000000000000000000 ) ) ;
#166 = DIRECTION ( 'NONE',  ( 1.000000000000000000, 0.000000000000000000, 0.000000000000000000 ) ) ;
#167 = DIRECTION ( 'NONE',  ( -0.000000000000000000, -0.000000000000000000, -1.000000000000000000 ) ) ;
#168 = DIRECTION ( 'NONE',  ( 1.000000000000000000, 0.000000000000000000, 0.000000000000000000 ) ) ;
#169 = EDGE_CURVE ( 'NONE', #176, #188, #268, .T. ) ;
#170 = LINE ( 'NONE', #236, #32 ) ;
#171 = CIRCLE ( 'NONE', #213, 0.2000000000000000944 ) ;
#172 = SHAPE_DEFINITION_REPRESENTATION ( #193, #196 ) ;
#173 = CIRCLE ( 'NONE', #25, 2.700000000000000178 ) ;
#174 = DATE_AND_TIME ( #11, #119 ) ;
#175 = VECTOR ( 'NONE', #112, 1000.000000000000000 ) ;
#176 = VERTEX_POINT ( 'NONE', #17 ) ;
#177 = DATE_AND_TIME ( #92, #152 ) ;
#178 = CARTESIAN_POINT ( 'NONE',  ( 0.000000000000000000, 0.000000000000000000, 0.000000000000000000 ) ) ;
#179 = PERSON_AND_ORGANIZATION_ROLE ( 'creator' ) ;
#180 =( NAMED_UNIT ( * ) SI_UNIT ( $, .STERADIAN. ) SOLID_ANGLE_UNIT ( ) );
#181 = DIRECTION ( 'NONE',  ( -1.000000000000000000, 1.224646799147353207E-16, 0.000000000000000000 ) ) ;
#182 = COORDINATED_UNIVERSAL_TIME_OFFSET ( 1, 0, .AHEAD. ) ;
#183 = CYLINDRICAL_SURFACE ( 'NONE', #226, 5.000000000000000000 ) ;
#184 = APPROVAL_DATE_TIME ( #117, #257 ) ;
#185 = APPLICATION_CONTEXT ( 'configuration controlled 3d designs of mechanical parts and assemblies' ) ;
#186 = DIRECTION ( 'NONE',  ( 1.224646799147353207E-16, 1.000000000000000000, -0.000000000000000000 ) ) ;
#187 = DIRECTION ( 'NONE',  ( 0.000000000000000000, 0.000000000000000000, 1.000000000000000000 ) ) ;
#188 = VERTEX_POINT ( 'NONE', #113 ) ;
#189 = CARTESIAN_POINT ( 'NONE',  ( -2.500000000000000000, 0.000000000000000000, 128.0000000000000000 ) ) ;
#190 = EDGE_CURVE ( 'NONE', #3, #153, #8, .T. ) ;
#191 = ORIENTED_EDGE ( 'NONE', *, *, #169, .T. ) ;
#192 = CARTESIAN_POINT ( 'NONE',  ( 5.000000000000000000, 6.123233995736766282E-16, 3.000000000000000000 ) ) ;
#193 = PRODUCT_DEFINITION_SHAPE ( 'NONE', 'NONE',  #266 ) ;
#194 = EDGE_LOOP ( 'NONE', ( #88, #271, #110, #136 ) ) ;
#195 = AXIS2_PLACEMENT_3D ( 'NONE', #144, #228, #260 ) ;
#196 = ADVANCED_BREP_SHAPE_REPRESENTATION ( '46da', ( #10, #65 ), #45 ) ;
#197 = EDGE_CURVE ( 'NONE', #36, #248, #138, .T. ) ;
#198 = CC_DESIGN_APPROVAL ( #219, ( #252 ) ) ;
#199 = ORIENTED_EDGE ( 'NONE', *, *, #6, .T. ) ;
#200 = CC_DESIGN_DATE_AND_TIME_ASSIGNMENT ( #174, #63, ( #73 ) ) ;
#201 = ADVANCED_FACE ( 'NONE', ( #299 ), #183, .T. ) ;
#202 = APPLICATION_CONTEXT ( 'configuration controlled 3d designs of mechanical parts and assemblies' ) ;
#203 = DATE_AND_TIME ( #42, #160 ) ;
#204 = PERSON_AND_ORGANIZATION_ROLE ( 'design_owner' ) ;
#205 = CARTESIAN_POINT ( 'NONE',  ( -2.700000000000000178, 3.306546357697853733E-16, 2.999999999999997335 ) ) ;
#206 = DIRECTION ( 'NONE',  ( 0.000000000000000000, 0.000000000000000000, 1.000000000000000000 ) ) ;
#207 = DIRECTION ( 'NONE',  ( 0.000000000000000000, 0.000000000000000000, 1.000000000000000000 ) ) ;
#208 = PERSON_AND_ORGANIZATION ( #294, #269 ) ;
#209 = TOROIDAL_SURFACE ( 'NONE', #147, 2.700000000000000178, 0.2000000000000000111 ) ;
#210 = CARTESIAN_POINT ( 'NONE',  ( 2.700000000000000178, 0.000000000000000000, 2.999999999999997335 ) ) ;
#211 = CC_DESIGN_DATE_AND_TIME_ASSIGNMENT ( #39, #71, ( #266 ) ) ;
#212 = CARTESIAN_POINT ( 'NONE',  ( 0.000000000000000000, 0.000000000000000000, 3.000000000000000000 ) ) ;
#213 = AXIS2_PLACEMENT_3D ( 'NONE', #232, #186, #181 ) ;
#214 = VERTEX_POINT ( 'NONE', #205 ) ;
#215 = LINE ( 'NONE', #189, #102 ) ;
#216 = DIRECTION ( 'NONE',  ( 1.000000000000000000, 0.000000000000000000, 0.000000000000000000 ) ) ;
#217 = DIRECTION ( 'NONE',  ( -0.000000000000000000, -0.000000000000000000, -1.000000000000000000 ) ) ;
#218 = EDGE_LOOP ( 'NONE', ( #222, #12 ) ) ;
#219 = APPROVAL ( #47, 'NEURÈENÝ' ) ;
#220 = ORIENTED_EDGE ( 'NONE', *, *, #64, .F. ) ;
#221 = EDGE_CURVE ( 'NONE', #3, #188, #94, .T. ) ;
#222 = ORIENTED_EDGE ( 'NONE', *, *, #169, .F. ) ;
#223 = ORIENTED_EDGE ( 'NONE', *, *, #56, .T. ) ;
#224 = CYLINDRICAL_SURFACE ( 'NONE', #55, 2.500000000000000000 ) ;
#225 = VERTEX_POINT ( 'NONE', #52 ) ;
#226 = AXIS2_PLACEMENT_3D ( 'NONE', #212, #146, #139 ) ;
#227 =( NAMED_UNIT ( * ) PLANE_ANGLE_UNIT ( ) SI_UNIT ( $, .RADIAN. ) );
#228 = DIRECTION ( 'NONE',  ( 0.000000000000000000, 0.000000000000000000, 1.000000000000000000 ) ) ;
#229 = CARTESIAN_POINT ( 'NONE',  ( 0.000000000000000000, 0.000000000000000000, 128.0000000000000000 ) ) ;
#230 = DIRECTION ( 'NONE',  ( 1.000000000000000000, 0.000000000000000000, 0.000000000000000000 ) ) ;
#231 = DIRECTION ( 'NONE',  ( -1.000000000000000000, 0.000000000000000000, 0.000000000000000000 ) ) ;
#232 = CARTESIAN_POINT ( 'NONE',  ( -2.700000000000000178, 3.306546357697853733E-16, 3.199999999999994404 ) ) ;
#233 = EDGE_CURVE ( 'NONE', #153, #3, #2, .T. ) ;
#234 = FACE_OUTER_BOUND ( 'NONE', #218, .T. ) ;
#235 = EDGE_CURVE ( 'NONE', #26, #214, #171, .T. ) ;
#236 = CARTESIAN_POINT ( 'NONE',  ( -5.000000000000000000, 0.000000000000000000, 3.000000000000000000 ) ) ;
#237 = APPROVAL_PERSON_ORGANIZATION ( #15, #116, #87 ) ;
#238 = DIRECTION ( 'NONE',  ( 0.000000000000000000, 0.000000000000000000, 1.000000000000000000 ) ) ;
#239 = CARTESIAN_POINT ( 'NONE',  ( 0.000000000000000000, 0.000000000000000000, 128.0000000000000000 ) ) ;
#240 = PLANE ( 'NONE',  #50 ) ;
#241 = ORIENTED_EDGE ( 'NONE', *, *, #233, .F. ) ;
#242 = APPROVAL_STATUS ( 'not_yet_approved' ) ;
#243 = ADVANCED_FACE ( 'NONE', ( #48 ), #27, .F. ) ;
#244 = AXIS2_PLACEMENT_3D ( 'NONE', #306, #44, #141 ) ;
#245 = EDGE_LOOP ( 'NONE', ( #68, #270 ) ) ;
#246 = COORDINATED_UNIVERSAL_TIME_OFFSET ( 1, 0, .AHEAD. ) ;
#247 =( LENGTH_UNIT ( ) NAMED_UNIT ( * ) SI_UNIT ( .MILLI., .METRE. ) );
#248 = VERTEX_POINT ( 'NONE', #210 ) ;
#249 = CIRCLE ( 'NONE', #258, 2.500000000000000000 ) ;
#250 = PERSON_AND_ORGANIZATION_ROLE ( 'creator' ) ;
#251 = DIRECTION ( 'NONE',  ( 1.000000000000000000, 0.000000000000000000, -0.000000000000000000 ) ) ;
#252 = PRODUCT_DEFINITION_FORMATION_WITH_SPECIFIED_SOURCE ( 'LIBOVOLNÝ', '', #286, .NOT_KNOWN. ) ;
#253 = PERSON_AND_ORGANIZATION ( #294, #269 ) ;
#254 = CARTESIAN_POINT ( 'NONE',  ( 5.000000000000000000, 6.123233995736766282E-16, 3.000000000000000000 ) ) ;
#255 = PERSON_AND_ORGANIZATION ( #294, #269 ) ;
#256 = CARTESIAN_POINT ( 'NONE',  ( 0.000000000000000000, 0.000000000000000000, 3.000000000000000000 ) ) ;
#257 = APPROVAL ( #301, 'NEURÈENÝ' ) ;
#258 = AXIS2_PLACEMENT_3D ( 'NONE', #57, #1, #168 ) ;
#259 = DIRECTION ( 'NONE',  ( -0.000000000000000000, -0.000000000000000000, -1.000000000000000000 ) ) ;
#260 = DIRECTION ( 'NONE',  ( 1.000000000000000000, 0.000000000000000000, -0.000000000000000000 ) ) ;
#261 = ORIENTED_EDGE ( 'NONE', *, *, #233, .T. ) ;
#262 = FACE_BOUND ( 'NONE', #151, .T. ) ;
#263 = APPROVAL_PERSON_ORGANIZATION ( #304, #257, #96 ) ;
#264 = VERTEX_POINT ( 'NONE', #74 ) ;
#265 = DIRECTION ( 'NONE',  ( -0.000000000000000000, -0.000000000000000000, -1.000000000000000000 ) ) ;
#266 = PRODUCT_DEFINITION ( 'NEZNÁMÝ', '', #252, #91 ) ;
#267 = CIRCLE ( 'NONE', #135, 2.500000000000000000 ) ;
#268 = CIRCLE ( 'NONE', #114, 5.000000000000000000 ) ;
#269 = ORGANIZATION ( 'NEURÈENÝ', 'NEURÈENÝ', '' ) ;
#270 = ORIENTED_EDGE ( 'NONE', *, *, #34, .T. ) ;
#271 = ORIENTED_EDGE ( 'NONE', *, *, #95, .F. ) ;
#272 = PERSON_AND_ORGANIZATION_ROLE ( 'classification_officer' ) ;
#273 = CALENDAR_DATE ( 2022, 7, 7 ) ;
#274 = CARTESIAN_POINT ( 'NONE',  ( 0.000000000000000000, 0.000000000000000000, 128.0000000000000000 ) ) ;
#275 = CC_DESIGN_SECURITY_CLASSIFICATION ( #73, ( #252 ) ) ;
#276 = ADVANCED_FACE ( 'NONE', ( #19 ), #115, .T. ) ;
#277 = CARTESIAN_POINT ( 'NONE',  ( 0.000000000000000000, 0.000000000000000000, 3.199999999999994404 ) ) ;
#278 = ADVANCED_FACE ( 'NONE', ( #282 ), #75, .T. ) ;
#279 = COORDINATED_UNIVERSAL_TIME_OFFSET ( 1, 0, .AHEAD. ) ;
#280 = DIRECTION ( 'NONE',  ( 0.000000000000000000, -1.000000000000000000, 0.000000000000000000 ) ) ;
#281 = AXIS2_PLACEMENT_3D ( 'NONE', #148, #28, #33 ) ;
#282 = FACE_OUTER_BOUND ( 'NONE', #284, .T. ) ;
#283 = LOCAL_TIME ( 12, 20, 19.00000000000000000, #182 ) ;
#284 = EDGE_LOOP ( 'NONE', ( #9, #293, #38, #291 ) ) ;
#285 = DIRECTION ( 'NONE',  ( -0.000000000000000000, -0.000000000000000000, -1.000000000000000000 ) ) ;
#286 = PRODUCT ( '46da', '46da', '', ( #69 ) ) ;
#287 = ORIENTED_EDGE ( 'NONE', *, *, #37, .T. ) ;
#288 = CC_DESIGN_APPROVAL ( #257, ( #266 ) ) ;
#289 = DIRECTION ( 'NONE',  ( 0.000000000000000000, 0.000000000000000000, 1.000000000000000000 ) ) ;
#290 = ADVANCED_FACE ( 'NONE', ( #43 ), #209, .F. ) ;
#291 = ORIENTED_EDGE ( 'NONE', *, *, #61, .F. ) ;
#292 = AXIS2_PLACEMENT_3D ( 'NONE', #302, #280, #100 ) ;
#293 = ORIENTED_EDGE ( 'NONE', *, *, #300, .T. ) ;
#294 = PERSON ( 'NEURÈENÝ', 'NEURÈENÝ', 'NEURÈENÝ', ('NEURÈENÝ'), ('NEURÈENÝ'), ('NEURÈENÝ') ) ;
#295 = ORIENTED_EDGE ( 'NONE', *, *, #221, .F. ) ;
#296 = APPROVAL_DATE_TIME ( #177, #116 ) ;
#297 = DIRECTION ( 'NONE',  ( -0.000000000000000000, -0.000000000000000000, -1.000000000000000000 ) ) ;
#298 = APPLICATION_PROTOCOL_DEFINITION ( 'international standard', 'config_control_design', 1994, #202 ) ;
#299 = FACE_OUTER_BOUND ( 'NONE', #14, .T. ) ;
#300 = EDGE_CURVE ( 'NONE', #264, #36, #134, .T. ) ;
#301 = APPROVAL_STATUS ( 'not_yet_approved' ) ;
#302 = CARTESIAN_POINT ( 'NONE',  ( 2.700000000000000178, 0.000000000000000000, 3.199999999999994404 ) ) ;
#303 = ADVANCED_FACE ( 'NONE', ( #155 ), #224, .T. ) ;
#304 = PERSON_AND_ORGANIZATION ( #294, #269 ) ;
#305 = DIRECTION ( 'NONE',  ( -1.000000000000000000, 0.000000000000000000, 0.000000000000000000 ) ) ;
#306 = CARTESIAN_POINT ( 'NONE',  ( 0.000000000000000000, 0.000000000000000000, 3.000000000000000000 ) ) ;
#307 = CIRCLE ( 'NONE', #158, 2.500000000000000000 ) ;
ENDSEC;
END-ISO-10303-21;
