ISO-10303-21;
HEADER;
FILE_DESCRIPTION (( 'STEP AP203' ),
    '1' );
FILE_NAME ('e8aa.STEP',
    '2022-07-07T10:26:09',
    ( '' ),
    ( '' ),
    'SwSTEP 2.0',
    'SolidWorks 2019',
    '' );
FILE_SCHEMA (( 'CONFIG_CONTROL_DESIGN' ));
ENDSEC;

DATA;
#1 = VECTOR ( 'NONE', #274, 1000.000000000000000 ) ;
#2 = ORIENTED_EDGE ( 'NONE', *, *, #32, .F. ) ;
#3 = APPROVAL_STATUS ( 'not_yet_approved' ) ;
#4 = AXIS2_PLACEMENT_3D ( 'NONE', #181, #301, #158 ) ;
#5 = VERTEX_POINT ( 'NONE', #179 ) ;
#6 = EDGE_CURVE ( 'NONE', #31, #193, #71, .T. ) ;
#7 = CARTESIAN_POINT ( 'NONE',  ( 0.000000000000000000, 0.000000000000000000, 0.000000000000000000 ) ) ;
#8 = PLANE ( 'NONE',  #78 ) ;
#9 = AXIS2_PLACEMENT_3D ( 'NONE', #46, #287, #120 ) ;
#10 = APPROVAL ( #216, 'NEURÈENÝ' ) ;
#11 = CARTESIAN_POINT ( 'NONE',  ( -4.000000000000000000, 0.000000000000000000, 0.000000000000000000 ) ) ;
#12 = VERTEX_POINT ( 'NONE', #11 ) ;
#13 = DIRECTION ( 'NONE',  ( -0.000000000000000000, -0.000000000000000000, -1.000000000000000000 ) ) ;
#14 =( NAMED_UNIT ( * ) PLANE_ANGLE_UNIT ( ) SI_UNIT ( $, .RADIAN. ) );
#15 = AXIS2_PLACEMENT_3D ( 'NONE', #38, #37, #276 ) ;
#16 = CARTESIAN_POINT ( 'NONE',  ( 2.000000000000000000, 2.449293598294706414E-16, 203.0000000000000000 ) ) ;
#17 = ORIENTED_EDGE ( 'NONE', *, *, #6, .F. ) ;
#18 = DIRECTION ( 'NONE',  ( 1.000000000000000000, 0.000000000000000000, 0.000000000000000000 ) ) ;
#19 = DIRECTION ( 'NONE',  ( 0.000000000000000000, 0.000000000000000000, 1.000000000000000000 ) ) ;
#20 = ORGANIZATION ( 'NEURÈENÝ', 'NEURÈENÝ', '' ) ;
#21 = SECURITY_CLASSIFICATION_LEVEL ( 'unclassified' ) ;
#22 = PERSON_AND_ORGANIZATION ( #122, #20 ) ;
#23 = AXIS2_PLACEMENT_3D ( 'NONE', #244, #36, #33 ) ;
#24 = ORIENTED_EDGE ( 'NONE', *, *, #187, .F. ) ;
#25 = COORDINATED_UNIVERSAL_TIME_OFFSET ( 1, 0, .AHEAD. ) ;
#26 = AXIS2_PLACEMENT_3D ( 'NONE', #59, #220, #84 ) ;
#27 = LINE ( 'NONE', #129, #52 ) ;
#28 = ADVANCED_FACE ( 'NONE', ( #53 ), #167, .F. ) ;
#29 = AXIS2_PLACEMENT_3D ( 'NONE', #62, #43, #248 ) ;
#30 = CARTESIAN_POINT ( 'NONE',  ( 0.000000000000000000, 0.000000000000000000, 3.000000000000000000 ) ) ;
#31 = VERTEX_POINT ( 'NONE', #294 ) ;
#32 = EDGE_CURVE ( 'NONE', #102, #12, #264, .T. ) ;
#33 = DIRECTION ( 'NONE',  ( -1.000000000000000000, 0.000000000000000000, 0.000000000000000000 ) ) ;
#34 = MANIFOLD_SOLID_BREP ( 'Zaoblit1', #283 ) ;
#35 = CIRCLE ( 'NONE', #108, 2.200000000000000178 ) ;
#36 = DIRECTION ( 'NONE',  ( -0.000000000000000000, -0.000000000000000000, -1.000000000000000000 ) ) ;
#37 = DIRECTION ( 'NONE',  ( -0.000000000000000000, -0.000000000000000000, -1.000000000000000000 ) ) ;
#38 = CARTESIAN_POINT ( 'NONE',  ( 0.000000000000000000, 0.000000000000000000, 203.0000000000000000 ) ) ;
#39 = CARTESIAN_POINT ( 'NONE',  ( 0.000000000000000000, 0.000000000000000000, 203.0000000000000000 ) ) ;
#40 = VERTEX_POINT ( 'NONE', #271 ) ;
#41 = DIRECTION ( 'NONE',  ( 0.000000000000000000, 0.000000000000000000, 1.000000000000000000 ) ) ;
#42 = ORIENTED_EDGE ( 'NONE', *, *, #205, .F. ) ;
#43 = DIRECTION ( 'NONE',  ( 0.000000000000000000, -1.000000000000000000, 0.000000000000000000 ) ) ;
#44 = ORIENTED_EDGE ( 'NONE', *, *, #57, .T. ) ;
#45 = AXIS2_PLACEMENT_3D ( 'NONE', #89, #204, #18 ) ;
#46 = CARTESIAN_POINT ( 'NONE',  ( 0.000000000000000000, 0.000000000000000000, 0.000000000000000000 ) ) ;
#47 = DATE_AND_TIME ( #306, #48 ) ;
#48 = LOCAL_TIME ( 12, 26, 9.000000000000000000, #170 ) ;
#49 = MECHANICAL_CONTEXT ( 'NONE', #168, 'mechanical' ) ;
#50 = CC_DESIGN_DATE_AND_TIME_ASSIGNMENT ( #128, #150, ( #162 ) ) ;
#51 = CYLINDRICAL_SURFACE ( 'NONE', #23, 4.000000000000000000 ) ;
#52 = VECTOR ( 'NONE', #104, 1000.000000000000000 ) ;
#53 = FACE_OUTER_BOUND ( 'NONE', #67, .T. ) ;
#54 =( GEOMETRIC_REPRESENTATION_CONTEXT ( 3 ) GLOBAL_UNCERTAINTY_ASSIGNED_CONTEXT ( ( #197 ) ) GLOBAL_UNIT_ASSIGNED_CONTEXT ( ( #227, #14, #258 ) ) REPRESENTATION_CONTEXT ( 'NONE', 'WORKASPACE' ) );
#55 = FACE_OUTER_BOUND ( 'NONE', #201, .T. ) ;
#56 = CYLINDRICAL_SURFACE ( 'NONE', #229, 4.000000000000000000 ) ;
#57 = EDGE_CURVE ( 'NONE', #31, #102, #27, .T. ) ;
#58 = AXIS2_PLACEMENT_3D ( 'NONE', #7, #155, #243 ) ;
#59 = CARTESIAN_POINT ( 'NONE',  ( 0.000000000000000000, 0.000000000000000000, 3.200000000000008171 ) ) ;
#60 = LOCAL_TIME ( 12, 26, 9.000000000000000000, #25 ) ;
#61 = PLANE ( 'NONE',  #4 ) ;
#62 = CARTESIAN_POINT ( 'NONE',  ( 2.200000000000000178, 0.000000000000000000, 3.200000000000008171 ) ) ;
#63 = DIRECTION ( 'NONE',  ( 1.224646799147353207E-16, 1.000000000000000000, -0.000000000000000000 ) ) ;
#64 = DIRECTION ( 'NONE',  ( -0.000000000000000000, -0.000000000000000000, -1.000000000000000000 ) ) ;
#65 = CIRCLE ( 'NONE', #45, 4.000000000000000000 ) ;
#66 = EDGE_CURVE ( 'NONE', #5, #199, #76, .T. ) ;
#67 = EDGE_LOOP ( 'NONE', ( #221, #134, #180, #196 ) ) ;
#68 = CARTESIAN_POINT ( 'NONE',  ( 2.200000000000000178, 0.000000000000000000, 3.000000000000004441 ) ) ;
#69 = ORIENTED_EDGE ( 'NONE', *, *, #175, .F. ) ;
#70 = PERSON_AND_ORGANIZATION_ROLE ( 'design_owner' ) ;
#71 = CIRCLE ( 'NONE', #240, 4.000000000000000000 ) ;
#72 = AXIS2_PLACEMENT_3D ( 'NONE', #212, #63, #114 ) ;
#73 = PERSON_AND_ORGANIZATION_ROLE ( 'classification_officer' ) ;
#74 = PERSON_AND_ORGANIZATION_ROLE ( 'creator' ) ;
#75 = VERTEX_POINT ( 'NONE', #223 ) ;
#76 = CIRCLE ( 'NONE', #139, 2.000000000000000000 ) ;
#77 = DATE_AND_TIME ( #284, #178 ) ;
#78 = AXIS2_PLACEMENT_3D ( 'NONE', #174, #85, #106 ) ;
#79 = VECTOR ( 'NONE', #298, 1000.000000000000000 ) ;
#80 = CC_DESIGN_DATE_AND_TIME_ASSIGNMENT ( #286, #147, ( #210 ) ) ;
#81 = ADVANCED_BREP_SHAPE_REPRESENTATION ( 'e8aa', ( #34, #9 ), #54 ) ;
#82 = FACE_OUTER_BOUND ( 'NONE', #208, .T. ) ;
#83 = ORIENTED_EDGE ( 'NONE', *, *, #175, .T. ) ;
#84 = DIRECTION ( 'NONE',  ( 1.000000000000000000, 0.000000000000000000, 0.000000000000000000 ) ) ;
#85 = DIRECTION ( 'NONE',  ( 0.000000000000000000, 0.000000000000000000, 1.000000000000000000 ) ) ;
#86 = CYLINDRICAL_SURFACE ( 'NONE', #15, 2.000000000000000000 ) ;
#87 = AXIS2_PLACEMENT_3D ( 'NONE', #39, #13, #112 ) ;
#88 = DIRECTION ( 'NONE',  ( -0.000000000000000000, -0.000000000000000000, -1.000000000000000000 ) ) ;
#89 = CARTESIAN_POINT ( 'NONE',  ( 0.000000000000000000, 0.000000000000000000, 0.000000000000000000 ) ) ;
#90 = DIRECTION ( 'NONE',  ( -0.000000000000000000, -0.000000000000000000, -1.000000000000000000 ) ) ;
#91 = CIRCLE ( 'NONE', #291, 4.000000000000000000 ) ;
#92 = ORIENTED_EDGE ( 'NONE', *, *, #289, .F. ) ;
#93 = CARTESIAN_POINT ( 'NONE',  ( 0.000000000000000000, 0.000000000000000000, 3.200000000000008171 ) ) ;
#94 = ORIENTED_EDGE ( 'NONE', *, *, #257, .T. ) ;
#95 = APPROVAL_ROLE ( '' ) ;
#96 = APPROVAL_DATE_TIME ( #77, #10 ) ;
#97 = ADVANCED_FACE ( 'NONE', ( #55 ), #8, .T. ) ;
#98 = LOCAL_TIME ( 12, 26, 9.000000000000000000, #256 ) ;
#99 = CALENDAR_DATE ( 2022, 7, 7 ) ;
#100 = ORIENTED_EDGE ( 'NONE', *, *, #32, .T. ) ;
#101 = PERSON_AND_ORGANIZATION ( #122, #20 ) ;
#102 = VERTEX_POINT ( 'NONE', #292 ) ;
#103 = ORIENTED_EDGE ( 'NONE', *, *, #267, .T. ) ;
#104 = DIRECTION ( 'NONE',  ( -0.000000000000000000, -0.000000000000000000, -1.000000000000000000 ) ) ;
#105 = CC_DESIGN_PERSON_AND_ORGANIZATION_ASSIGNMENT ( #238, #73, ( #162 ) ) ;
#106 = DIRECTION ( 'NONE',  ( 1.000000000000000000, 0.000000000000000000, -0.000000000000000000 ) ) ;
#107 = APPROVAL_PERSON_ORGANIZATION ( #101, #10, #233 ) ;
#108 = AXIS2_PLACEMENT_3D ( 'NONE', #251, #88, #144 ) ;
#109 = PLANE ( 'NONE',  #200 ) ;
#110 = DIRECTION ( 'NONE',  ( -1.000000000000000000, 0.000000000000000000, 0.000000000000000000 ) ) ;
#111 = ADVANCED_FACE ( 'NONE', ( #269 ), #56, .T. ) ;
#112 = DIRECTION ( 'NONE',  ( -1.000000000000000000, 0.000000000000000000, 0.000000000000000000 ) ) ;
#113 = CC_DESIGN_APPROVAL ( #136, ( #210 ) ) ;
#114 = DIRECTION ( 'NONE',  ( -1.000000000000000000, 1.224646799147353207E-16, 0.000000000000000000 ) ) ;
#115 = CARTESIAN_POINT ( 'NONE',  ( 2.000000000000000000, 2.449293598294706414E-16, 3.200000000000008171 ) ) ;
#116 = ORIENTED_EDGE ( 'NONE', *, *, #273, .T. ) ;
#117 = DIRECTION ( 'NONE',  ( 0.000000000000000000, 0.000000000000000000, 1.000000000000000000 ) ) ;
#118 = EDGE_LOOP ( 'NONE', ( #17, #44, #100, #24 ) ) ;
#119 = LINE ( 'NONE', #207, #79 ) ;
#120 = DIRECTION ( 'NONE',  ( 1.000000000000000000, 0.000000000000000000, 0.000000000000000000 ) ) ;
#121 = ADVANCED_FACE ( 'NONE', ( #82 ), #51, .T. ) ;
#122 = PERSON ( 'NEURÈENÝ', 'NEURÈENÝ', 'NEURÈENÝ', ('NEURÈENÝ'), ('NEURÈENÝ'), ('NEURÈENÝ') ) ;
#123 = APPROVAL_DATE_TIME ( #47, #195 ) ;
#124 = AXIS2_PLACEMENT_3D ( 'NONE', #247, #138, #163 ) ;
#125 = ADVANCED_FACE ( 'NONE', ( #137, #176 ), #109, .T. ) ;
#126 = APPLICATION_PROTOCOL_DEFINITION ( 'international standard', 'config_control_design', 1994, #168 ) ;
#127 = ORIENTED_EDGE ( 'NONE', *, *, #273, .F. ) ;
#128 = DATE_AND_TIME ( #305, #60 ) ;
#129 = CARTESIAN_POINT ( 'NONE',  ( 4.000000000000000000, 4.898587196589412829E-16, 3.000000000000000000 ) ) ;
#130 = CIRCLE ( 'NONE', #124, 2.000000000000000000 ) ;
#131 = DIRECTION ( 'NONE',  ( 0.000000000000000000, 0.000000000000000000, 1.000000000000000000 ) ) ;
#132 = CC_DESIGN_PERSON_AND_ORGANIZATION_ASSIGNMENT ( #171, #74, ( #299 ) ) ;
#133 = PRODUCT ( 'e8aa', 'e8aa', '', ( #49 ) ) ;
#134 = ORIENTED_EDGE ( 'NONE', *, *, #257, .F. ) ;
#135 = VERTEX_POINT ( 'NONE', #245 ) ;
#136 = APPROVAL ( #3, 'NEURÈENÝ' ) ;
#137 = FACE_BOUND ( 'NONE', #295, .T. ) ;
#138 = DIRECTION ( 'NONE',  ( 0.000000000000000000, 0.000000000000000000, 1.000000000000000000 ) ) ;
#139 = AXIS2_PLACEMENT_3D ( 'NONE', #266, #156, #198 ) ;
#140 = DIRECTION ( 'NONE',  ( 1.000000000000000000, 0.000000000000000000, 0.000000000000000000 ) ) ;
#141 = VECTOR ( 'NONE', #64, 1000.000000000000000 ) ;
#142 = ORIENTED_EDGE ( 'NONE', *, *, #267, .F. ) ;
#143 = ADVANCED_FACE ( 'NONE', ( #203 ), #149, .F. ) ;
#144 = DIRECTION ( 'NONE',  ( 1.000000000000000000, 0.000000000000000000, 0.000000000000000000 ) ) ;
#145 = PRODUCT_RELATED_PRODUCT_CATEGORY ( 'detail', '', ( #133 ) ) ;
#146 = CIRCLE ( 'NONE', #72, 0.2000000000000000944 ) ;
#147 = DATE_TIME_ROLE ( 'creation_date' ) ;
#148 = APPROVAL_ROLE ( '' ) ;
#149 = TOROIDAL_SURFACE ( 'NONE', #272, 2.200000000000000178, 0.2000000000000000111 ) ;
#150 = DATE_TIME_ROLE ( 'classification_date' ) ;
#151 = AXIS2_PLACEMENT_3D ( 'NONE', #93, #41, #304 ) ;
#152 = PERSON_AND_ORGANIZATION_ROLE ( 'design_supplier' ) ;
#153 = CARTESIAN_POINT ( 'NONE',  ( 0.000000000000000000, 0.000000000000000000, 3.000000000000000000 ) ) ;
#154 = CC_DESIGN_APPROVAL ( #10, ( #299 ) ) ;
#155 = DIRECTION ( 'NONE',  ( 0.000000000000000000, 0.000000000000000000, 1.000000000000000000 ) ) ;
#156 = DIRECTION ( 'NONE',  ( 0.000000000000000000, 0.000000000000000000, 1.000000000000000000 ) ) ;
#157 = DIRECTION ( 'NONE',  ( 1.000000000000000000, 0.000000000000000000, -0.000000000000000000 ) ) ;
#158 = DIRECTION ( 'NONE',  ( 1.000000000000000000, 0.000000000000000000, -0.000000000000000000 ) ) ;
#159 = LINE ( 'NONE', #275, #141 ) ;
#160 = FACE_OUTER_BOUND ( 'NONE', #173, .T. ) ;
#161 = CC_DESIGN_PERSON_AND_ORGANIZATION_ASSIGNMENT ( #232, #152, ( #299 ) ) ;
#162 = SECURITY_CLASSIFICATION ( '', '', #21 ) ;
#163 = DIRECTION ( 'NONE',  ( 1.000000000000000000, 0.000000000000000000, 0.000000000000000000 ) ) ;
#164 = EDGE_LOOP ( 'NONE', ( #92, #2 ) ) ;
#165 = CARTESIAN_POINT ( 'NONE',  ( -4.000000000000000000, 0.000000000000000000, 3.000000000000000000 ) ) ;
#166 = PERSON_AND_ORGANIZATION ( #122, #20 ) ;
#167 = TOROIDAL_SURFACE ( 'NONE', #26, 2.200000000000000178, 0.2000000000000000111 ) ;
#168 = APPLICATION_CONTEXT ( 'configuration controlled 3d designs of mechanical parts and assemblies' ) ;
#169 = PERSON_AND_ORGANIZATION ( #122, #20 ) ;
#170 = COORDINATED_UNIVERSAL_TIME_OFFSET ( 1, 0, .AHEAD. ) ;
#171 = PERSON_AND_ORGANIZATION ( #122, #20 ) ;
#172 = CIRCLE ( 'NONE', #151, 2.000000000000000000 ) ;
#173 = EDGE_LOOP ( 'NONE', ( #215, #231, #94, #142 ) ) ;
#174 = CARTESIAN_POINT ( 'NONE',  ( 0.000000000000000000, 0.000000000000000000, 203.0000000000000000 ) ) ;
#175 = EDGE_CURVE ( 'NONE', #193, #31, #91, .T. ) ;
#176 = FACE_OUTER_BOUND ( 'NONE', #288, .T. ) ;
#177 = EDGE_LOOP ( 'NONE', ( #42, #127, #103, #254 ) ) ;
#178 = LOCAL_TIME ( 12, 26, 9.000000000000000000, #290 ) ;
#179 = CARTESIAN_POINT ( 'NONE',  ( -2.000000000000000000, 0.000000000000000000, 3.200000000000008171 ) ) ;
#180 = ORIENTED_EDGE ( 'NONE', *, *, #192, .T. ) ;
#181 = CARTESIAN_POINT ( 'NONE',  ( 0.000000000000000000, 0.000000000000000000, 0.000000000000000000 ) ) ;
#182 = EDGE_CURVE ( 'NONE', #5, #135, #146, .T. ) ;
#183 = FACE_OUTER_BOUND ( 'NONE', #177, .T. ) ;
#184 = ORIENTED_EDGE ( 'NONE', *, *, #293, .F. ) ;
#185 = LOCAL_TIME ( 12, 26, 9.000000000000000000, #194 ) ;
#186 = DIRECTION ( 'NONE',  ( 1.000000000000000000, 0.000000000000000000, 0.000000000000000000 ) ) ;
#187 = EDGE_CURVE ( 'NONE', #193, #12, #119, .T. ) ;
#188 = VERTEX_POINT ( 'NONE', #68 ) ;
#189 = APPROVAL_STATUS ( 'not_yet_approved' ) ;
#190 = PERSON_AND_ORGANIZATION_ROLE ( 'creator' ) ;
#191 = DATE_AND_TIME ( #99, #98 ) ;
#192 = EDGE_CURVE ( 'NONE', #199, #188, #234, .T. ) ;
#193 = VERTEX_POINT ( 'NONE', #165 ) ;
#194 = COORDINATED_UNIVERSAL_TIME_OFFSET ( 1, 0, .AHEAD. ) ;
#195 = APPROVAL ( #189, 'NEURÈENÝ' ) ;
#196 = ORIENTED_EDGE ( 'NONE', *, *, #222, .F. ) ;
#197 = UNCERTAINTY_MEASURE_WITH_UNIT (LENGTH_MEASURE( 1.000000000000000082E-05 ), #227, 'distance_accuracy_value', 'NONE');
#198 = DIRECTION ( 'NONE',  ( 1.000000000000000000, 0.000000000000000000, 0.000000000000000000 ) ) ;
#199 = VERTEX_POINT ( 'NONE', #115 ) ;
#200 = AXIS2_PLACEMENT_3D ( 'NONE', #202, #296, #157 ) ;
#201 = EDGE_LOOP ( 'NONE', ( #116, #297 ) ) ;
#202 = CARTESIAN_POINT ( 'NONE',  ( 0.000000000000000000, 0.000000000000000000, 3.000000000000000000 ) ) ;
#203 = FACE_OUTER_BOUND ( 'NONE', #252, .T. ) ;
#204 = DIRECTION ( 'NONE',  ( 0.000000000000000000, 0.000000000000000000, 1.000000000000000000 ) ) ;
#205 = EDGE_CURVE ( 'NONE', #40, #199, #206, .T. ) ;
#206 = LINE ( 'NONE', #16, #1 ) ;
#207 = CARTESIAN_POINT ( 'NONE',  ( -4.000000000000000000, 0.000000000000000000, 3.000000000000000000 ) ) ;
#208 = EDGE_LOOP ( 'NONE', ( #250, #69, #280, #219 ) ) ;
#209 = CARTESIAN_POINT ( 'NONE',  ( 0.000000000000000000, 0.000000000000000000, 203.0000000000000000 ) ) ;
#210 = PRODUCT_DEFINITION ( 'NEZNÁMÝ', '', #299, #268 ) ;
#211 = CC_DESIGN_SECURITY_CLASSIFICATION ( #162, ( #299 ) ) ;
#212 = CARTESIAN_POINT ( 'NONE',  ( -2.200000000000000178, 2.694222958124177006E-16, 3.200000000000008171 ) ) ;
#213 = SHAPE_DEFINITION_REPRESENTATION ( #300, #81 ) ;
#214 = CC_DESIGN_PERSON_AND_ORGANIZATION_ASSIGNMENT ( #22, #70, ( #133 ) ) ;
#215 = ORIENTED_EDGE ( 'NONE', *, *, #218, .F. ) ;
#216 = APPROVAL_STATUS ( 'not_yet_approved' ) ;
#217 = ORIENTED_EDGE ( 'NONE', *, *, #6, .T. ) ;
#218 = EDGE_CURVE ( 'NONE', #40, #75, #241, .T. ) ;
#219 = ORIENTED_EDGE ( 'NONE', *, *, #289, .T. ) ;
#220 = DIRECTION ( 'NONE',  ( 0.000000000000000000, 0.000000000000000000, 1.000000000000000000 ) ) ;
#221 = ORIENTED_EDGE ( 'NONE', *, *, #182, .F. ) ;
#222 = EDGE_CURVE ( 'NONE', #135, #188, #279, .T. ) ;
#223 = CARTESIAN_POINT ( 'NONE',  ( -2.000000000000000000, 0.000000000000000000, 203.0000000000000000 ) ) ;
#224 = CC_DESIGN_APPROVAL ( #195, ( #162 ) ) ;
#225 = CYLINDRICAL_SURFACE ( 'NONE', #87, 2.000000000000000000 ) ;
#226 = CC_DESIGN_PERSON_AND_ORGANIZATION_ASSIGNMENT ( #255, #190, ( #210 ) ) ;
#227 =( LENGTH_UNIT ( ) NAMED_UNIT ( * ) SI_UNIT ( .MILLI., .METRE. ) );
#228 = ORIENTED_EDGE ( 'NONE', *, *, #66, .F. ) ;
#229 = AXIS2_PLACEMENT_3D ( 'NONE', #153, #262, #110 ) ;
#230 = DIRECTION ( 'NONE',  ( 0.000000000000000000, 0.000000000000000000, 1.000000000000000000 ) ) ;
#231 = ORIENTED_EDGE ( 'NONE', *, *, #205, .T. ) ;
#232 = PERSON_AND_ORGANIZATION ( #122, #20 ) ;
#233 = APPROVAL_ROLE ( '' ) ;
#234 = CIRCLE ( 'NONE', #29, 0.2000000000000000944 ) ;
#235 = AXIS2_PLACEMENT_3D ( 'NONE', #209, #230, #140 ) ;
#236 = CALENDAR_DATE ( 2022, 7, 7 ) ;
#237 = ADVANCED_FACE ( 'NONE', ( #183 ), #86, .T. ) ;
#238 = PERSON_AND_ORGANIZATION ( #122, #20 ) ;
#239 = CARTESIAN_POINT ( 'NONE',  ( 0.000000000000000000, 0.000000000000000000, 3.000000000000000000 ) ) ;
#240 = AXIS2_PLACEMENT_3D ( 'NONE', #30, #131, #263 ) ;
#241 = CIRCLE ( 'NONE', #235, 2.000000000000000000 ) ;
#242 = ORIENTED_EDGE ( 'NONE', *, *, #182, .T. ) ;
#243 = DIRECTION ( 'NONE',  ( 1.000000000000000000, 0.000000000000000000, 0.000000000000000000 ) ) ;
#244 = CARTESIAN_POINT ( 'NONE',  ( 0.000000000000000000, 0.000000000000000000, 3.000000000000000000 ) ) ;
#245 = CARTESIAN_POINT ( 'NONE',  ( -2.200000000000000178, 2.694222958124177006E-16, 3.000000000000004441 ) ) ;
#246 = APPROVAL_PERSON_ORGANIZATION ( #166, #136, #148 ) ;
#247 = CARTESIAN_POINT ( 'NONE',  ( 0.000000000000000000, 0.000000000000000000, 203.0000000000000000 ) ) ;
#248 = DIRECTION ( 'NONE',  ( 0.000000000000000000, 0.000000000000000000, -1.000000000000000000 ) ) ;
#249 = DIRECTION ( 'NONE',  ( 1.000000000000000000, 0.000000000000000000, 0.000000000000000000 ) ) ;
#250 = ORIENTED_EDGE ( 'NONE', *, *, #57, .F. ) ;
#251 = CARTESIAN_POINT ( 'NONE',  ( 0.000000000000000000, 0.000000000000000000, 3.000000000000000000 ) ) ;
#252 = EDGE_LOOP ( 'NONE', ( #228, #242, #184, #303 ) ) ;
#253 = DIRECTION ( 'NONE',  ( 1.000000000000000000, 0.000000000000000000, 0.000000000000000000 ) ) ;
#254 = ORIENTED_EDGE ( 'NONE', *, *, #66, .T. ) ;
#255 = PERSON_AND_ORGANIZATION ( #122, #20 ) ;
#256 = COORDINATED_UNIVERSAL_TIME_OFFSET ( 1, 0, .AHEAD. ) ;
#257 = EDGE_CURVE ( 'NONE', #199, #5, #172, .T. ) ;
#258 =( NAMED_UNIT ( * ) SI_UNIT ( $, .STERADIAN. ) SOLID_ANGLE_UNIT ( ) );
#259 = ADVANCED_FACE ( 'NONE', ( #277 ), #61, .F. ) ;
#260 = APPLICATION_PROTOCOL_DEFINITION ( 'international standard', 'config_control_design', 1994, #270 ) ;
#261 = ORIENTED_EDGE ( 'NONE', *, *, #222, .T. ) ;
#262 = DIRECTION ( 'NONE',  ( -0.000000000000000000, -0.000000000000000000, -1.000000000000000000 ) ) ;
#263 = DIRECTION ( 'NONE',  ( 1.000000000000000000, 0.000000000000000000, 0.000000000000000000 ) ) ;
#264 = CIRCLE ( 'NONE', #58, 4.000000000000000000 ) ;
#265 = AXIS2_PLACEMENT_3D ( 'NONE', #281, #90, #249 ) ;
#266 = CARTESIAN_POINT ( 'NONE',  ( 0.000000000000000000, 0.000000000000000000, 3.200000000000008171 ) ) ;
#267 = EDGE_CURVE ( 'NONE', #75, #5, #159, .T. ) ;
#268 = DESIGN_CONTEXT ( 'detailed design', #270, 'design' ) ;
#269 = FACE_OUTER_BOUND ( 'NONE', #118, .T. ) ;
#270 = APPLICATION_CONTEXT ( 'configuration controlled 3d designs of mechanical parts and assemblies' ) ;
#271 = CARTESIAN_POINT ( 'NONE',  ( 2.000000000000000000, 2.449293598294706414E-16, 203.0000000000000000 ) ) ;
#272 = AXIS2_PLACEMENT_3D ( 'NONE', #302, #117, #253 ) ;
#273 = EDGE_CURVE ( 'NONE', #75, #40, #130, .T. ) ;
#274 = DIRECTION ( 'NONE',  ( -0.000000000000000000, -0.000000000000000000, -1.000000000000000000 ) ) ;
#275 = CARTESIAN_POINT ( 'NONE',  ( -2.000000000000000000, 0.000000000000000000, 203.0000000000000000 ) ) ;
#276 = DIRECTION ( 'NONE',  ( -1.000000000000000000, 0.000000000000000000, 0.000000000000000000 ) ) ;
#277 = FACE_OUTER_BOUND ( 'NONE', #164, .T. ) ;
#278 = ADVANCED_FACE ( 'NONE', ( #160 ), #225, .T. ) ;
#279 = CIRCLE ( 'NONE', #265, 2.200000000000000178 ) ;
#280 = ORIENTED_EDGE ( 'NONE', *, *, #187, .T. ) ;
#281 = CARTESIAN_POINT ( 'NONE',  ( 0.000000000000000000, 0.000000000000000000, 3.000000000000000000 ) ) ;
#282 = ORIENTED_EDGE ( 'NONE', *, *, #293, .T. ) ;
#283 = CLOSED_SHELL ( 'NONE', ( #143, #278, #111, #121, #125, #259, #237, #97, #28 ) ) ;
#284 = CALENDAR_DATE ( 2022, 7, 7 ) ;
#285 = APPROVAL_PERSON_ORGANIZATION ( #169, #195, #95 ) ;
#286 = DATE_AND_TIME ( #236, #185 ) ;
#287 = DIRECTION ( 'NONE',  ( 0.000000000000000000, 0.000000000000000000, 1.000000000000000000 ) ) ;
#288 = EDGE_LOOP ( 'NONE', ( #83, #217 ) ) ;
#289 = EDGE_CURVE ( 'NONE', #12, #102, #65, .T. ) ;
#290 = COORDINATED_UNIVERSAL_TIME_OFFSET ( 1, 0, .AHEAD. ) ;
#291 = AXIS2_PLACEMENT_3D ( 'NONE', #239, #19, #186 ) ;
#292 = CARTESIAN_POINT ( 'NONE',  ( 4.000000000000000000, 4.898587196589412829E-16, 0.000000000000000000 ) ) ;
#293 = EDGE_CURVE ( 'NONE', #188, #135, #35, .T. ) ;
#294 = CARTESIAN_POINT ( 'NONE',  ( 4.000000000000000000, 4.898587196589412829E-16, 3.000000000000000000 ) ) ;
#295 = EDGE_LOOP ( 'NONE', ( #282, #261 ) ) ;
#296 = DIRECTION ( 'NONE',  ( 0.000000000000000000, 0.000000000000000000, 1.000000000000000000 ) ) ;
#297 = ORIENTED_EDGE ( 'NONE', *, *, #218, .T. ) ;
#298 = DIRECTION ( 'NONE',  ( -0.000000000000000000, -0.000000000000000000, -1.000000000000000000 ) ) ;
#299 = PRODUCT_DEFINITION_FORMATION_WITH_SPECIFIED_SOURCE ( 'LIBOVOLNÝ', '', #133, .NOT_KNOWN. ) ;
#300 = PRODUCT_DEFINITION_SHAPE ( 'NONE', 'NONE',  #210 ) ;
#301 = DIRECTION ( 'NONE',  ( 0.000000000000000000, 0.000000000000000000, 1.000000000000000000 ) ) ;
#302 = CARTESIAN_POINT ( 'NONE',  ( 0.000000000000000000, 0.000000000000000000, 3.200000000000008171 ) ) ;
#303 = ORIENTED_EDGE ( 'NONE', *, *, #192, .F. ) ;
#304 = DIRECTION ( 'NONE',  ( 1.000000000000000000, 0.000000000000000000, 0.000000000000000000 ) ) ;
#305 = CALENDAR_DATE ( 2022, 7, 7 ) ;
#306 = CALENDAR_DATE ( 2022, 7, 7 ) ;
#307 = APPROVAL_DATE_TIME ( #191, #136 ) ;
ENDSEC;
END-ISO-10303-21;
