ISO-10303-21;
HEADER;
FILE_DESCRIPTION (( 'STEP AP203' ),
    '1' );
FILE_NAME ('8110.STEP',
    '2022-07-07T09:38:55',
    ( '' ),
    ( '' ),
    'SwSTEP 2.0',
    'SolidWorks 2019',
    '' );
FILE_SCHEMA (( 'CONFIG_CONTROL_DESIGN' ));
ENDSEC;

DATA;
#1 = CARTESIAN_POINT ( 'NONE',  ( 0.000000000000000000, 0.000000000000000000, 0.000000000000000000 ) ) ;
#2 = EDGE_CURVE ( 'NONE', #293, #80, #182, .T. ) ;
#3 = CARTESIAN_POINT ( 'NONE',  ( 0.000000000000000000, 0.000000000000000000, 7.000000000000000000 ) ) ;
#4 = AXIS2_PLACEMENT_3D ( 'NONE', #35, #194, #29 ) ;
#5 =( NAMED_UNIT ( * ) SI_UNIT ( $, .STERADIAN. ) SOLID_ANGLE_UNIT ( ) );
#6 = CARTESIAN_POINT ( 'NONE',  ( 0.000000000000000000, 0.000000000000000000, 7.200000000000011724 ) ) ;
#7 = DIRECTION ( 'NONE',  ( 1.000000000000000000, 0.000000000000000000, 0.000000000000000000 ) ) ;
#8 = EDGE_CURVE ( 'NONE', #76, #10, #23, .T. ) ;
#9 = AXIS2_PLACEMENT_3D ( 'NONE', #32, #246, #7 ) ;
#10 = VERTEX_POINT ( 'NONE', #65 ) ;
#11 = ORIENTED_EDGE ( 'NONE', *, *, #270, .F. ) ;
#12 = SECURITY_CLASSIFICATION_LEVEL ( 'unclassified' ) ;
#13 = CC_DESIGN_PERSON_AND_ORGANIZATION_ASSIGNMENT ( #146, #295, ( #135 ) ) ;
#14 = VECTOR ( 'NONE', #107, 1000.000000000000000 ) ;
#15 = ORIENTED_EDGE ( 'NONE', *, *, #270, .T. ) ;
#16 = APPROVAL_PERSON_ORGANIZATION ( #253, #70, #231 ) ;
#17 = AXIS2_PLACEMENT_3D ( 'NONE', #211, #301, #84 ) ;
#18 = APPROVAL_STATUS ( 'not_yet_approved' ) ;
#19 = DATE_AND_TIME ( #153, #38 ) ;
#20 = LINE ( 'NONE', #216, #166 ) ;
#21 = CC_DESIGN_APPROVAL ( #24, ( #252 ) ) ;
#22 = CARTESIAN_POINT ( 'NONE',  ( 0.000000000000000000, 0.000000000000000000, 7.000000000000000000 ) ) ;
#23 = CIRCLE ( 'NONE', #68, 8.000000000000000000 ) ;
#24 = APPROVAL ( #177, 'NEURÈENÝ' ) ;
#25 = CARTESIAN_POINT ( 'NONE',  ( 8.200000000000001066, 0.000000000000000000, 7.200000000000011724 ) ) ;
#26 = CARTESIAN_POINT ( 'NONE',  ( 0.000000000000000000, 0.000000000000000000, 167.0000000000000000 ) ) ;
#27 = CARTESIAN_POINT ( 'NONE',  ( 0.000000000000000000, 0.000000000000000000, 7.200000000000011724 ) ) ;
#28 = TOROIDAL_SURFACE ( 'NONE', #260, 8.200000000000001066, 0.2000000000000000111 ) ;
#29 = DIRECTION ( 'NONE',  ( 1.000000000000000000, 0.000000000000000000, 0.000000000000000000 ) ) ;
#30 = DIRECTION ( 'NONE',  ( 1.000000000000000000, 0.000000000000000000, -0.000000000000000000 ) ) ;
#31 =( NAMED_UNIT ( * ) PLANE_ANGLE_UNIT ( ) SI_UNIT ( $, .RADIAN. ) );
#32 = CARTESIAN_POINT ( 'NONE',  ( 0.000000000000000000, 0.000000000000000000, 7.000000000000000000 ) ) ;
#33 = EDGE_CURVE ( 'NONE', #10, #293, #263, .T. ) ;
#34 = PERSON_AND_ORGANIZATION ( #207, #241 ) ;
#35 = CARTESIAN_POINT ( 'NONE',  ( 0.000000000000000000, 0.000000000000000000, 7.000000000000000000 ) ) ;
#36 = PERSON_AND_ORGANIZATION ( #207, #241 ) ;
#37 = ORIENTED_EDGE ( 'NONE', *, *, #95, .F. ) ;
#38 = LOCAL_TIME ( 11, 38, 55.00000000000000000, #98 ) ;
#39 = CIRCLE ( 'NONE', #269, 8.200000000000001066 ) ;
#40 = VERTEX_POINT ( 'NONE', #261 ) ;
#41 = APPROVAL_DATE_TIME ( #73, #24 ) ;
#42 = EDGE_LOOP ( 'NONE', ( #208, #205, #224, #15 ) ) ;
#43 = SHAPE_DEFINITION_REPRESENTATION ( #88, #196 ) ;
#44 = CARTESIAN_POINT ( 'NONE',  ( 8.000000000000000000, 9.797174393178825657E-16, 7.200000000000011724 ) ) ;
#45 = CARTESIAN_POINT ( 'NONE',  ( 0.000000000000000000, 0.000000000000000000, 7.000000000000000000 ) ) ;
#46 = DIRECTION ( 'NONE',  ( 1.000000000000000000, 0.000000000000000000, 0.000000000000000000 ) ) ;
#47 = DIRECTION ( 'NONE',  ( -1.000000000000000000, 1.224646799147353207E-16, 0.000000000000000000 ) ) ;
#48 = ORIENTED_EDGE ( 'NONE', *, *, #8, .F. ) ;
#49 = AXIS2_PLACEMENT_3D ( 'NONE', #140, #55, #93 ) ;
#50 = EDGE_CURVE ( 'NONE', #40, #277, #192, .T. ) ;
#51 = FACE_OUTER_BOUND ( 'NONE', #119, .T. ) ;
#52 = AXIS2_PLACEMENT_3D ( 'NONE', #25, #109, #162 ) ;
#53 = DIRECTION ( 'NONE',  ( 0.000000000000000000, 0.000000000000000000, 1.000000000000000000 ) ) ;
#54 = EDGE_CURVE ( 'NONE', #154, #57, #145, .T. ) ;
#55 = DIRECTION ( 'NONE',  ( 0.000000000000000000, 0.000000000000000000, 1.000000000000000000 ) ) ;
#56 = COORDINATED_UNIVERSAL_TIME_OFFSET ( 1, 0, .AHEAD. ) ;
#57 = VERTEX_POINT ( 'NONE', #240 ) ;
#58 = ORIENTED_EDGE ( 'NONE', *, *, #50, .T. ) ;
#59 = DIRECTION ( 'NONE',  ( -0.000000000000000000, -0.000000000000000000, -1.000000000000000000 ) ) ;
#60 = ORIENTED_EDGE ( 'NONE', *, *, #110, .T. ) ;
#61 = DATE_AND_TIME ( #297, #282 ) ;
#62 = EDGE_LOOP ( 'NONE', ( #11, #150 ) ) ;
#63 = DIRECTION ( 'NONE',  ( -1.000000000000000000, 0.000000000000000000, 0.000000000000000000 ) ) ;
#64 = DIRECTION ( 'NONE',  ( -0.000000000000000000, -0.000000000000000000, -1.000000000000000000 ) ) ;
#65 = CARTESIAN_POINT ( 'NONE',  ( -8.000000000000000000, 0.000000000000000000, 167.0000000000000000 ) ) ;
#66 = FACE_OUTER_BOUND ( 'NONE', #198, .T. ) ;
#67 = VERTEX_POINT ( 'NONE', #181 ) ;
#68 = AXIS2_PLACEMENT_3D ( 'NONE', #283, #259, #89 ) ;
#69 = CARTESIAN_POINT ( 'NONE',  ( 11.00000000000000000, 1.347111479062088405E-15, 7.000000000000000000 ) ) ;
#70 = APPROVAL ( #18, 'NEURÈENÝ' ) ;
#71 = CYLINDRICAL_SURFACE ( 'NONE', #203, 11.00000000000000000 ) ;
#72 = CC_DESIGN_PERSON_AND_ORGANIZATION_ASSIGNMENT ( #276, #155, ( #117 ) ) ;
#73 = DATE_AND_TIME ( #129, #171 ) ;
#74 = CIRCLE ( 'NONE', #49, 11.00000000000000000 ) ;
#75 = ORIENTED_EDGE ( 'NONE', *, *, #8, .T. ) ;
#76 = VERTEX_POINT ( 'NONE', #183 ) ;
#77 = ORIENTED_EDGE ( 'NONE', *, *, #120, .F. ) ;
#78 = ADVANCED_FACE ( 'NONE', ( #215 ), #105, .F. ) ;
#79 = APPROVAL_DATE_TIME ( #106, #127 ) ;
#80 = VERTEX_POINT ( 'NONE', #158 ) ;
#81 = CALENDAR_DATE ( 2022, 7, 7 ) ;
#82 = ORIENTED_EDGE ( 'NONE', *, *, #189, .F. ) ;
#83 = CC_DESIGN_APPROVAL ( #127, ( #135 ) ) ;
#84 = DIRECTION ( 'NONE',  ( 1.000000000000000000, 0.000000000000000000, 0.000000000000000000 ) ) ;
#85 = CARTESIAN_POINT ( 'NONE',  ( 8.000000000000000000, 9.797174393178825657E-16, 167.0000000000000000 ) ) ;
#86 = CARTESIAN_POINT ( 'NONE',  ( 0.000000000000000000, 0.000000000000000000, 167.0000000000000000 ) ) ;
#87 = CC_DESIGN_SECURITY_CLASSIFICATION ( #117, ( #135 ) ) ;
#88 = PRODUCT_DEFINITION_SHAPE ( 'NONE', 'NONE',  #252 ) ;
#89 = DIRECTION ( 'NONE',  ( 1.000000000000000000, 0.000000000000000000, 0.000000000000000000 ) ) ;
#90 = CIRCLE ( 'NONE', #225, 8.000000000000000000 ) ;
#91 = DIRECTION ( 'NONE',  ( 0.000000000000000000, 0.000000000000000000, 1.000000000000000000 ) ) ;
#92 = MECHANICAL_CONTEXT ( 'NONE', #161, 'mechanical' ) ;
#93 = DIRECTION ( 'NONE',  ( 1.000000000000000000, 0.000000000000000000, 0.000000000000000000 ) ) ;
#94 = FACE_OUTER_BOUND ( 'NONE', #42, .T. ) ;
#95 = EDGE_CURVE ( 'NONE', #154, #293, #90, .T. ) ;
#96 = ORIENTED_EDGE ( 'NONE', *, *, #2, .F. ) ;
#97 = EDGE_LOOP ( 'NONE', ( #82, #157, #199, #101 ) ) ;
#98 = COORDINATED_UNIVERSAL_TIME_OFFSET ( 1, 0, .AHEAD. ) ;
#99 = EDGE_CURVE ( 'NONE', #152, #40, #133, .T. ) ;
#100 = MANIFOLD_SOLID_BREP ( 'Zaoblit1', #285 ) ;
#101 = ORIENTED_EDGE ( 'NONE', *, *, #248, .T. ) ;
#102 = LOCAL_TIME ( 11, 38, 55.00000000000000000, #56 ) ;
#103 = DATE_TIME_ROLE ( 'classification_date' ) ;
#104 = EDGE_LOOP ( 'NONE', ( #291, #75 ) ) ;
#105 = PLANE ( 'NONE',  #187 ) ;
#106 = DATE_AND_TIME ( #299, #102 ) ;
#107 = DIRECTION ( 'NONE',  ( -0.000000000000000000, -0.000000000000000000, -1.000000000000000000 ) ) ;
#108 = DIRECTION ( 'NONE',  ( 0.000000000000000000, 0.000000000000000000, 1.000000000000000000 ) ) ;
#109 = DIRECTION ( 'NONE',  ( 0.000000000000000000, -1.000000000000000000, 0.000000000000000000 ) ) ;
#110 = EDGE_CURVE ( 'NONE', #57, #80, #39, .T. ) ;
#111 = FACE_OUTER_BOUND ( 'NONE', #97, .T. ) ;
#112 = DIRECTION ( 'NONE',  ( 1.000000000000000000, 0.000000000000000000, 0.000000000000000000 ) ) ;
#113 = DIRECTION ( 'NONE',  ( 0.000000000000000000, 0.000000000000000000, 1.000000000000000000 ) ) ;
#114 = AXIS2_PLACEMENT_3D ( 'NONE', #170, #218, #222 ) ;
#115 = APPLICATION_PROTOCOL_DEFINITION ( 'international standard', 'config_control_design', 1994, #147 ) ;
#116 = CC_DESIGN_DATE_AND_TIME_ASSIGNMENT ( #61, #103, ( #117 ) ) ;
#117 = SECURITY_CLASSIFICATION ( '', '', #12 ) ;
#118 = EDGE_LOOP ( 'NONE', ( #122, #251 ) ) ;
#119 = EDGE_LOOP ( 'NONE', ( #96, #37, #305, #292 ) ) ;
#120 = EDGE_CURVE ( 'NONE', #67, #277, #20, .T. ) ;
#121 = DATE_AND_TIME ( #81, #186 ) ;
#122 = ORIENTED_EDGE ( 'NONE', *, *, #179, .T. ) ;
#123 =( GEOMETRIC_REPRESENTATION_CONTEXT ( 3 ) GLOBAL_UNCERTAINTY_ASSIGNED_CONTEXT ( ( #175 ) ) GLOBAL_UNIT_ASSIGNED_CONTEXT ( ( #143, #31, #5 ) ) REPRESENTATION_CONTEXT ( 'NONE', 'WORKASPACE' ) );
#124 = PERSON_AND_ORGANIZATION ( #207, #241 ) ;
#125 = AXIS2_PLACEMENT_3D ( 'NONE', #86, #239, #262 ) ;
#126 = FACE_OUTER_BOUND ( 'NONE', #249, .T. ) ;
#127 = APPROVAL ( #247, 'NEURÈENÝ' ) ;
#128 = DIRECTION ( 'NONE',  ( 1.000000000000000000, 0.000000000000000000, 0.000000000000000000 ) ) ;
#129 = CALENDAR_DATE ( 2022, 7, 7 ) ;
#130 = CARTESIAN_POINT ( 'NONE',  ( 0.000000000000000000, 0.000000000000000000, 7.200000000000011724 ) ) ;
#131 = CYLINDRICAL_SURFACE ( 'NONE', #288, 8.000000000000000000 ) ;
#132 = PRODUCT_RELATED_PRODUCT_CATEGORY ( 'detail', '', ( #160 ) ) ;
#133 = LINE ( 'NONE', #156, #302 ) ;
#134 = CARTESIAN_POINT ( 'NONE',  ( -8.000000000000000000, 0.000000000000000000, 167.0000000000000000 ) ) ;
#135 = PRODUCT_DEFINITION_FORMATION_WITH_SPECIFIED_SOURCE ( 'LIBOVOLNÝ', '', #160, .NOT_KNOWN. ) ;
#136 = APPLICATION_PROTOCOL_DEFINITION ( 'international standard', 'config_control_design', 1994, #161 ) ;
#137 = VECTOR ( 'NONE', #184, 1000.000000000000000 ) ;
#138 = DIRECTION ( 'NONE',  ( -1.000000000000000000, 0.000000000000000000, 0.000000000000000000 ) ) ;
#139 = PLANE ( 'NONE',  #159 ) ;
#140 = CARTESIAN_POINT ( 'NONE',  ( 0.000000000000000000, 0.000000000000000000, 0.000000000000000000 ) ) ;
#141 = AXIS2_PLACEMENT_3D ( 'NONE', #22, #108, #257 ) ;
#142 = AXIS2_PLACEMENT_3D ( 'NONE', #197, #91, #30 ) ;
#143 =( LENGTH_UNIT ( ) NAMED_UNIT ( * ) SI_UNIT ( .MILLI., .METRE. ) );
#144 = FACE_BOUND ( 'NONE', #296, .T. ) ;
#145 = CIRCLE ( 'NONE', #52, 0.1999999999999996503 ) ;
#146 = PERSON_AND_ORGANIZATION ( #207, #241 ) ;
#147 = APPLICATION_CONTEXT ( 'configuration controlled 3d designs of mechanical parts and assemblies' ) ;
#148 = TOROIDAL_SURFACE ( 'NONE', #180, 8.200000000000001066, 0.2000000000000000111 ) ;
#149 = ORIENTED_EDGE ( 'NONE', *, *, #99, .T. ) ;
#150 = ORIENTED_EDGE ( 'NONE', *, *, #50, .F. ) ;
#151 = EDGE_CURVE ( 'NONE', #10, #76, #307, .T. ) ;
#152 = VERTEX_POINT ( 'NONE', #69 ) ;
#153 = CALENDAR_DATE ( 2022, 7, 7 ) ;
#154 = VERTEX_POINT ( 'NONE', #44 ) ;
#155 = PERSON_AND_ORGANIZATION_ROLE ( 'classification_officer' ) ;
#156 = CARTESIAN_POINT ( 'NONE',  ( 11.00000000000000000, 1.347111479062088405E-15, 7.000000000000000000 ) ) ;
#157 = ORIENTED_EDGE ( 'NONE', *, *, #151, .F. ) ;
#158 = CARTESIAN_POINT ( 'NONE',  ( -8.200000000000001066, 1.004210375300829674E-15, 7.000000000000006217 ) ) ;
#159 = AXIS2_PLACEMENT_3D ( 'NONE', #3, #113, #193 ) ;
#160 = PRODUCT ( '8110', '8110', '', ( #92 ) ) ;
#161 = APPLICATION_CONTEXT ( 'configuration controlled 3d designs of mechanical parts and assemblies' ) ;
#162 = DIRECTION ( 'NONE',  ( 0.000000000000000000, 0.000000000000000000, -1.000000000000000000 ) ) ;
#163 = DIRECTION ( 'NONE',  ( -1.000000000000000000, 0.000000000000000000, 0.000000000000000000 ) ) ;
#164 = DIRECTION ( 'NONE',  ( -0.000000000000000000, -0.000000000000000000, -1.000000000000000000 ) ) ;
#165 = DIRECTION ( 'NONE',  ( 1.000000000000000000, 0.000000000000000000, 0.000000000000000000 ) ) ;
#166 = VECTOR ( 'NONE', #237, 1000.000000000000000 ) ;
#167 = FACE_OUTER_BOUND ( 'NONE', #118, .T. ) ;
#168 = PERSON_AND_ORGANIZATION_ROLE ( 'design_owner' ) ;
#169 = DIRECTION ( 'NONE',  ( 0.000000000000000000, 0.000000000000000000, 1.000000000000000000 ) ) ;
#170 = CARTESIAN_POINT ( 'NONE',  ( 0.000000000000000000, 0.000000000000000000, 7.200000000000011724 ) ) ;
#171 = LOCAL_TIME ( 11, 38, 55.00000000000000000, #202 ) ;
#172 = ORIENTED_EDGE ( 'NONE', *, *, #189, .T. ) ;
#173 = CIRCLE ( 'NONE', #9, 11.00000000000000000 ) ;
#174 = ORIENTED_EDGE ( 'NONE', *, *, #229, .T. ) ;
#175 = UNCERTAINTY_MEASURE_WITH_UNIT (LENGTH_MEASURE( 1.000000000000000082E-05 ), #143, 'distance_accuracy_value', 'NONE');
#176 = ORIENTED_EDGE ( 'NONE', *, *, #95, .T. ) ;
#177 = APPROVAL_STATUS ( 'not_yet_approved' ) ;
#178 = ORIENTED_EDGE ( 'NONE', *, *, #110, .F. ) ;
#179 = EDGE_CURVE ( 'NONE', #67, #152, #212, .T. ) ;
#180 = AXIS2_PLACEMENT_3D ( 'NONE', #27, #169, #112 ) ;
#181 = CARTESIAN_POINT ( 'NONE',  ( -11.00000000000000000, 0.000000000000000000, 7.000000000000000000 ) ) ;
#182 = CIRCLE ( 'NONE', #243, 0.2000000000000005107 ) ;
#183 = CARTESIAN_POINT ( 'NONE',  ( 8.000000000000000000, 9.797174393178825657E-16, 167.0000000000000000 ) ) ;
#184 = DIRECTION ( 'NONE',  ( -0.000000000000000000, -0.000000000000000000, -1.000000000000000000 ) ) ;
#185 = DIRECTION ( 'NONE',  ( -1.000000000000000000, 0.000000000000000000, 0.000000000000000000 ) ) ;
#186 = LOCAL_TIME ( 11, 38, 55.00000000000000000, #235 ) ;
#187 = AXIS2_PLACEMENT_3D ( 'NONE', #298, #213, #210 ) ;
#188 = CARTESIAN_POINT ( 'NONE',  ( 0.000000000000000000, 0.000000000000000000, 167.0000000000000000 ) ) ;
#189 = EDGE_CURVE ( 'NONE', #76, #154, #303, .T. ) ;
#190 = DIRECTION ( 'NONE',  ( 0.000000000000000000, 0.000000000000000000, 1.000000000000000000 ) ) ;
#191 = FACE_OUTER_BOUND ( 'NONE', #201, .T. ) ;
#192 = CIRCLE ( 'NONE', #17, 11.00000000000000000 ) ;
#193 = DIRECTION ( 'NONE',  ( 1.000000000000000000, 0.000000000000000000, -0.000000000000000000 ) ) ;
#194 = DIRECTION ( 'NONE',  ( -0.000000000000000000, -0.000000000000000000, -1.000000000000000000 ) ) ;
#195 = CC_DESIGN_DATE_AND_TIME_ASSIGNMENT ( #19, #233, ( #252 ) ) ;
#196 = ADVANCED_BREP_SHAPE_REPRESENTATION ( '8110', ( #100, #223 ), #123 ) ;
#197 = CARTESIAN_POINT ( 'NONE',  ( 0.000000000000000000, 0.000000000000000000, 167.0000000000000000 ) ) ;
#198 = EDGE_LOOP ( 'NONE', ( #48, #172, #176, #232 ) ) ;
#199 = ORIENTED_EDGE ( 'NONE', *, *, #33, .T. ) ;
#200 = ADVANCED_FACE ( 'NONE', ( #66 ), #131, .T. ) ;
#201 = EDGE_LOOP ( 'NONE', ( #275, #149, #58, #77 ) ) ;
#202 = COORDINATED_UNIVERSAL_TIME_OFFSET ( 1, 0, .AHEAD. ) ;
#203 = AXIS2_PLACEMENT_3D ( 'NONE', #242, #164, #138 ) ;
#204 = CARTESIAN_POINT ( 'NONE',  ( 0.000000000000000000, 0.000000000000000000, 7.000000000000000000 ) ) ;
#205 = ORIENTED_EDGE ( 'NONE', *, *, #179, .F. ) ;
#206 = APPROVAL_ROLE ( '' ) ;
#207 = PERSON ( 'NEURÈENÝ', 'NEURÈENÝ', 'NEURÈENÝ', ('NEURÈENÝ'), ('NEURÈENÝ'), ('NEURÈENÝ') ) ;
#208 = ORIENTED_EDGE ( 'NONE', *, *, #99, .F. ) ;
#209 = PERSON_AND_ORGANIZATION ( #207, #241 ) ;
#210 = DIRECTION ( 'NONE',  ( 1.000000000000000000, 0.000000000000000000, -0.000000000000000000 ) ) ;
#211 = CARTESIAN_POINT ( 'NONE',  ( 0.000000000000000000, 0.000000000000000000, 0.000000000000000000 ) ) ;
#212 = CIRCLE ( 'NONE', #141, 11.00000000000000000 ) ;
#213 = DIRECTION ( 'NONE',  ( 0.000000000000000000, 0.000000000000000000, 1.000000000000000000 ) ) ;
#214 = ADVANCED_FACE ( 'NONE', ( #111 ), #306, .T. ) ;
#215 = FACE_OUTER_BOUND ( 'NONE', #62, .T. ) ;
#216 = CARTESIAN_POINT ( 'NONE',  ( -11.00000000000000000, 0.000000000000000000, 7.000000000000000000 ) ) ;
#217 = CARTESIAN_POINT ( 'NONE',  ( -8.000000000000000000, 0.000000000000000000, 7.200000000000011724 ) ) ;
#218 = DIRECTION ( 'NONE',  ( 0.000000000000000000, 0.000000000000000000, 1.000000000000000000 ) ) ;
#219 = CIRCLE ( 'NONE', #4, 8.200000000000001066 ) ;
#220 = ADVANCED_FACE ( 'NONE', ( #51 ), #28, .F. ) ;
#221 = PERSON_AND_ORGANIZATION ( #207, #241 ) ;
#222 = DIRECTION ( 'NONE',  ( 1.000000000000000000, 0.000000000000000000, 0.000000000000000000 ) ) ;
#223 = AXIS2_PLACEMENT_3D ( 'NONE', #1, #190, #265 ) ;
#224 = ORIENTED_EDGE ( 'NONE', *, *, #120, .T. ) ;
#225 = AXIS2_PLACEMENT_3D ( 'NONE', #130, #280, #46 ) ;
#226 = ORIENTED_EDGE ( 'NONE', *, *, #2, .T. ) ;
#227 = APPROVAL_ROLE ( '' ) ;
#228 = APPROVAL_DATE_TIME ( #121, #70 ) ;
#229 = EDGE_CURVE ( 'NONE', #80, #57, #219, .T. ) ;
#230 = DESIGN_CONTEXT ( 'detailed design', #147, 'design' ) ;
#231 = APPROVAL_ROLE ( '' ) ;
#232 = ORIENTED_EDGE ( 'NONE', *, *, #33, .F. ) ;
#233 = DATE_TIME_ROLE ( 'creation_date' ) ;
#234 = CARTESIAN_POINT ( 'NONE',  ( -8.200000000000001066, 1.004210375300829674E-15, 7.200000000000011724 ) ) ;
#235 = COORDINATED_UNIVERSAL_TIME_OFFSET ( 1, 0, .AHEAD. ) ;
#236 = APPROVAL_PERSON_ORGANIZATION ( #209, #127, #227 ) ;
#237 = DIRECTION ( 'NONE',  ( -0.000000000000000000, -0.000000000000000000, -1.000000000000000000 ) ) ;
#238 = DIRECTION ( 'NONE',  ( -0.000000000000000000, -0.000000000000000000, -1.000000000000000000 ) ) ;
#239 = DIRECTION ( 'NONE',  ( 0.000000000000000000, 0.000000000000000000, 1.000000000000000000 ) ) ;
#240 = CARTESIAN_POINT ( 'NONE',  ( 8.200000000000001066, 0.000000000000000000, 7.000000000000006217 ) ) ;
#241 = ORGANIZATION ( 'NEURÈENÝ', 'NEURÈENÝ', '' ) ;
#242 = CARTESIAN_POINT ( 'NONE',  ( 0.000000000000000000, 0.000000000000000000, 7.000000000000000000 ) ) ;
#243 = AXIS2_PLACEMENT_3D ( 'NONE', #234, #281, #47 ) ;
#244 = CARTESIAN_POINT ( 'NONE',  ( -11.00000000000000000, 0.000000000000000000, 0.000000000000000000 ) ) ;
#245 = APPROVAL_PERSON_ORGANIZATION ( #221, #24, #206 ) ;
#246 = DIRECTION ( 'NONE',  ( 0.000000000000000000, 0.000000000000000000, 1.000000000000000000 ) ) ;
#247 = APPROVAL_STATUS ( 'not_yet_approved' ) ;
#248 = EDGE_CURVE ( 'NONE', #293, #154, #250, .T. ) ;
#249 = EDGE_LOOP ( 'NONE', ( #255, #226, #178, #273 ) ) ;
#250 = CIRCLE ( 'NONE', #114, 8.000000000000000000 ) ;
#251 = ORIENTED_EDGE ( 'NONE', *, *, #279, .T. ) ;
#252 = PRODUCT_DEFINITION ( 'NEZNÁMÝ', '', #135, #230 ) ;
#253 = PERSON_AND_ORGANIZATION ( #207, #241 ) ;
#254 = CC_DESIGN_APPROVAL ( #70, ( #117 ) ) ;
#255 = ORIENTED_EDGE ( 'NONE', *, *, #248, .F. ) ;
#256 = PERSON_AND_ORGANIZATION_ROLE ( 'design_supplier' ) ;
#257 = DIRECTION ( 'NONE',  ( 1.000000000000000000, 0.000000000000000000, 0.000000000000000000 ) ) ;
#258 = ADVANCED_FACE ( 'NONE', ( #287 ), #264, .T. ) ;
#259 = DIRECTION ( 'NONE',  ( 0.000000000000000000, 0.000000000000000000, 1.000000000000000000 ) ) ;
#260 = AXIS2_PLACEMENT_3D ( 'NONE', #6, #53, #165 ) ;
#261 = CARTESIAN_POINT ( 'NONE',  ( 11.00000000000000000, 1.347111479062088405E-15, 0.000000000000000000 ) ) ;
#262 = DIRECTION ( 'NONE',  ( 1.000000000000000000, 0.000000000000000000, 0.000000000000000000 ) ) ;
#263 = LINE ( 'NONE', #134, #137 ) ;
#264 = PLANE ( 'NONE',  #142 ) ;
#265 = DIRECTION ( 'NONE',  ( 1.000000000000000000, 0.000000000000000000, 0.000000000000000000 ) ) ;
#266 = CC_DESIGN_PERSON_AND_ORGANIZATION_ASSIGNMENT ( #36, #256, ( #135 ) ) ;
#267 = CYLINDRICAL_SURFACE ( 'NONE', #294, 11.00000000000000000 ) ;
#268 = PERSON_AND_ORGANIZATION_ROLE ( 'creator' ) ;
#269 = AXIS2_PLACEMENT_3D ( 'NONE', #45, #64, #128 ) ;
#270 = EDGE_CURVE ( 'NONE', #277, #40, #74, .T. ) ;
#271 = AXIS2_PLACEMENT_3D ( 'NONE', #188, #286, #163 ) ;
#272 = ADVANCED_FACE ( 'NONE', ( #144, #167 ), #139, .T. ) ;
#273 = ORIENTED_EDGE ( 'NONE', *, *, #54, .F. ) ;
#274 = COORDINATED_UNIVERSAL_TIME_OFFSET ( 1, 0, .AHEAD. ) ;
#275 = ORIENTED_EDGE ( 'NONE', *, *, #279, .F. ) ;
#276 = PERSON_AND_ORGANIZATION ( #207, #241 ) ;
#277 = VERTEX_POINT ( 'NONE', #244 ) ;
#278 = DIRECTION ( 'NONE',  ( -0.000000000000000000, -0.000000000000000000, -1.000000000000000000 ) ) ;
#279 = EDGE_CURVE ( 'NONE', #152, #67, #173, .T. ) ;
#280 = DIRECTION ( 'NONE',  ( 0.000000000000000000, 0.000000000000000000, 1.000000000000000000 ) ) ;
#281 = DIRECTION ( 'NONE',  ( 1.224646799147353207E-16, 1.000000000000000000, -0.000000000000000000 ) ) ;
#282 = LOCAL_TIME ( 11, 38, 55.00000000000000000, #274 ) ;
#283 = CARTESIAN_POINT ( 'NONE',  ( 0.000000000000000000, 0.000000000000000000, 167.0000000000000000 ) ) ;
#284 = CC_DESIGN_PERSON_AND_ORGANIZATION_ASSIGNMENT ( #124, #268, ( #252 ) ) ;
#285 = CLOSED_SHELL ( 'NONE', ( #290, #200, #304, #289, #272, #78, #214, #258, #220 ) ) ;
#286 = DIRECTION ( 'NONE',  ( -0.000000000000000000, -0.000000000000000000, -1.000000000000000000 ) ) ;
#287 = FACE_OUTER_BOUND ( 'NONE', #104, .T. ) ;
#288 = AXIS2_PLACEMENT_3D ( 'NONE', #26, #238, #185 ) ;
#289 = ADVANCED_FACE ( 'NONE', ( #94 ), #267, .T. ) ;
#290 = ADVANCED_FACE ( 'NONE', ( #126 ), #148, .F. ) ;
#291 = ORIENTED_EDGE ( 'NONE', *, *, #151, .T. ) ;
#292 = ORIENTED_EDGE ( 'NONE', *, *, #229, .F. ) ;
#293 = VERTEX_POINT ( 'NONE', #217 ) ;
#294 = AXIS2_PLACEMENT_3D ( 'NONE', #204, #59, #63 ) ;
#295 = PERSON_AND_ORGANIZATION_ROLE ( 'creator' ) ;
#296 = EDGE_LOOP ( 'NONE', ( #60, #174 ) ) ;
#297 = CALENDAR_DATE ( 2022, 7, 7 ) ;
#298 = CARTESIAN_POINT ( 'NONE',  ( 0.000000000000000000, 0.000000000000000000, 0.000000000000000000 ) ) ;
#299 = CALENDAR_DATE ( 2022, 7, 7 ) ;
#300 = CC_DESIGN_PERSON_AND_ORGANIZATION_ASSIGNMENT ( #34, #168, ( #160 ) ) ;
#301 = DIRECTION ( 'NONE',  ( 0.000000000000000000, 0.000000000000000000, 1.000000000000000000 ) ) ;
#302 = VECTOR ( 'NONE', #278, 1000.000000000000000 ) ;
#303 = LINE ( 'NONE', #85, #14 ) ;
#304 = ADVANCED_FACE ( 'NONE', ( #191 ), #71, .T. ) ;
#305 = ORIENTED_EDGE ( 'NONE', *, *, #54, .T. ) ;
#306 = CYLINDRICAL_SURFACE ( 'NONE', #271, 8.000000000000000000 ) ;
#307 = CIRCLE ( 'NONE', #125, 8.000000000000000000 ) ;
ENDSEC;
END-ISO-10303-21;
