ISO-10303-21;
HEADER;
FILE_DESCRIPTION (( 'STEP AP203' ),
    '1' );
FILE_NAME ('eb0c.STEP',
    '2023-02-12T11:03:35',
    ( '' ),
    ( '' ),
    'SwSTEP 2.0',
    'SolidWorks 2019',
    '' );
FILE_SCHEMA (( 'CONFIG_CONTROL_DESIGN' ));
ENDSEC;

DATA;
#1 = DIRECTION ( 'NONE',  ( -0.000000000000000000, -0.000000000000000000, -1.000000000000000000 ) ) ;
#2 = CARTESIAN_POINT ( 'NONE',  ( 0.000000000000000000, 0.000000000000000000, 160.0000000000000000 ) ) ;
#3 = EDGE_CURVE ( 'NONE', #28, #111, #93, .T. ) ;
#4 = ADVANCED_FACE ( 'NONE', ( #142 ), #39, .T. ) ;
#5 = ADVANCED_FACE ( 'NONE', ( #122 ), #87, .T. ) ;
#6 = CARTESIAN_POINT ( 'NONE',  ( 0.000000000000000000, 0.000000000000000000, 160.0000000000000000 ) ) ;
#7 = APPROVAL ( #139, 'NEURÈENÝ' ) ;
#8 = COORDINATED_UNIVERSAL_TIME_OFFSET ( 1, 0, .AHEAD. ) ;
#9 = CC_DESIGN_APPROVAL ( #26, ( #250 ) ) ;
#10 = DATE_AND_TIME ( #101, #40 ) ;
#11 = DIRECTION ( 'NONE',  ( 1.000000000000000000, 0.000000000000000000, 0.000000000000000000 ) ) ;
#12 = APPROVAL_STATUS ( 'not_yet_approved' ) ;
#13 = CARTESIAN_POINT ( 'NONE',  ( -6.099999999999999645, 0.000000000000000000, 160.0000000000000000 ) ) ;
#14 = DIRECTION ( 'NONE',  ( -0.000000000000000000, -0.000000000000000000, -1.000000000000000000 ) ) ;
#15 = DIRECTION ( 'NONE',  ( 1.000000000000000000, 0.000000000000000000, 0.000000000000000000 ) ) ;
#16 = VECTOR ( 'NONE', #189, 1000.000000000000000 ) ;
#17 = AXIS2_PLACEMENT_3D ( 'NONE', #242, #103, #88 ) ;
#18 = CARTESIAN_POINT ( 'NONE',  ( 0.000000000000000000, 0.000000000000000000, 0.000000000000000000 ) ) ;
#19 = CARTESIAN_POINT ( 'NONE',  ( -9.000000000000000000, 0.000000000000000000, 0.000000000000000000 ) ) ;
#20 = EDGE_LOOP ( 'NONE', ( #244, #43 ) ) ;
#21 = AXIS2_PLACEMENT_3D ( 'NONE', #80, #206, #144 ) ;
#22 = EDGE_CURVE ( 'NONE', #226, #240, #200, .T. ) ;
#23 = CARTESIAN_POINT ( 'NONE',  ( 0.000000000000000000, 0.000000000000000000, 7.000000000000000000 ) ) ;
#24 = APPROVAL_ROLE ( '' ) ;
#25 = PERSON_AND_ORGANIZATION ( #196, #57 ) ;
#26 = APPROVAL ( #12, 'NEURÈENÝ' ) ;
#27 = CARTESIAN_POINT ( 'NONE',  ( 0.000000000000000000, 0.000000000000000000, 7.000000000000000000 ) ) ;
#28 = VERTEX_POINT ( 'NONE', #64 ) ;
#29 = EDGE_CURVE ( 'NONE', #111, #28, #152, .T. ) ;
#30 = DIRECTION ( 'NONE',  ( 0.000000000000000000, 0.000000000000000000, 1.000000000000000000 ) ) ;
#31 = LINE ( 'NONE', #184, #16 ) ;
#32 = DIRECTION ( 'NONE',  ( 1.000000000000000000, 0.000000000000000000, 0.000000000000000000 ) ) ;
#33 = LOCAL_TIME ( 12, 3, 35.00000000000000000, #229 ) ;
#34 = ORIENTED_EDGE ( 'NONE', *, *, #211, .T. ) ;
#35 = PRODUCT_DEFINITION_SHAPE ( 'NONE', 'NONE',  #250 ) ;
#36 = EDGE_LOOP ( 'NONE', ( #243, #194, #34, #84 ) ) ;
#37 = FACE_OUTER_BOUND ( 'NONE', #59, .T. ) ;
#38 = CYLINDRICAL_SURFACE ( 'NONE', #119, 6.099999999999999645 ) ;
#39 = PLANE ( 'NONE',  #21 ) ;
#40 = LOCAL_TIME ( 12, 3, 35.00000000000000000, #8 ) ;
#41 = MANIFOLD_SOLID_BREP ( 'Pøidat vysunutím3', #163 ) ;
#42 = COORDINATED_UNIVERSAL_TIME_OFFSET ( 1, 0, .AHEAD. ) ;
#43 = ORIENTED_EDGE ( 'NONE', *, *, #29, .T. ) ;
#44 = CARTESIAN_POINT ( 'NONE',  ( 0.000000000000000000, 0.000000000000000000, 7.000000000000000000 ) ) ;
#45 = APPLICATION_CONTEXT ( 'configuration controlled 3d designs of mechanical parts and assemblies' ) ;
#46 = APPROVAL_STATUS ( 'not_yet_approved' ) ;
#47 = ADVANCED_FACE ( 'NONE', ( #216, #149 ), #108, .T. ) ;
#48 = EDGE_CURVE ( 'NONE', #226, #113, #74, .T. ) ;
#49 = CIRCLE ( 'NONE', #193, 9.000000000000000000 ) ;
#50 =( NAMED_UNIT ( * ) PLANE_ANGLE_UNIT ( ) SI_UNIT ( $, .RADIAN. ) );
#51 = APPROVAL_DATE_TIME ( #10, #173 ) ;
#52 = CC_DESIGN_PERSON_AND_ORGANIZATION_ASSIGNMENT ( #120, #123, ( #76 ) ) ;
#53 = CARTESIAN_POINT ( 'NONE',  ( 0.000000000000000000, 0.000000000000000000, 0.000000000000000000 ) ) ;
#54 = DIRECTION ( 'NONE',  ( -1.000000000000000000, 0.000000000000000000, 0.000000000000000000 ) ) ;
#55 = DIRECTION ( 'NONE',  ( 0.000000000000000000, 0.000000000000000000, 1.000000000000000000 ) ) ;
#56 = CARTESIAN_POINT ( 'NONE',  ( 6.099999999999999645, 7.470345474798854293E-16, 160.0000000000000000 ) ) ;
#57 = ORGANIZATION ( 'NEURÈENÝ', 'NEURÈENÝ', '' ) ;
#58 = DIRECTION ( 'NONE',  ( 0.000000000000000000, 0.000000000000000000, 1.000000000000000000 ) ) ;
#59 = EDGE_LOOP ( 'NONE', ( #148, #167, #213, #115 ) ) ;
#60 = AXIS2_PLACEMENT_3D ( 'NONE', #191, #164, #232 ) ;
#61 = PERSON_AND_ORGANIZATION ( #196, #57 ) ;
#62 = EDGE_LOOP ( 'NONE', ( #158, #73, #96, #130 ) ) ;
#63 = CALENDAR_DATE ( 2023, 12, 2 ) ;
#64 = CARTESIAN_POINT ( 'NONE',  ( -6.099999999999999645, 0.000000000000000000, 160.0000000000000000 ) ) ;
#65 = APPROVAL_PERSON_ORGANIZATION ( #222, #173, #24 ) ;
#66 = ADVANCED_BREP_SHAPE_REPRESENTATION ( 'eb0c', ( #41, #235 ), #156 ) ;
#67 = CC_DESIGN_PERSON_AND_ORGANIZATION_ASSIGNMENT ( #61, #135, ( #250 ) ) ;
#68 = LINE ( 'NONE', #13, #155 ) ;
#69 = DIRECTION ( 'NONE',  ( 1.000000000000000000, 0.000000000000000000, -0.000000000000000000 ) ) ;
#70 = DIRECTION ( 'NONE',  ( 1.000000000000000000, 0.000000000000000000, 0.000000000000000000 ) ) ;
#71 = SECURITY_CLASSIFICATION ( '', '', #246 ) ;
#72 = CC_DESIGN_PERSON_AND_ORGANIZATION_ASSIGNMENT ( #208, #90, ( #230 ) ) ;
#73 = ORIENTED_EDGE ( 'NONE', *, *, #48, .T. ) ;
#74 = LINE ( 'NONE', #215, #77 ) ;
#75 = DIRECTION ( 'NONE',  ( 0.000000000000000000, 0.000000000000000000, 1.000000000000000000 ) ) ;
#76 = PRODUCT ( 'eb0c', 'eb0c', '', ( #143 ) ) ;
#77 = VECTOR ( 'NONE', #146, 1000.000000000000000 ) ;
#78 = CIRCLE ( 'NONE', #94, 6.099999999999999645 ) ;
#79 = ORIENTED_EDGE ( 'NONE', *, *, #211, .F. ) ;
#80 = CARTESIAN_POINT ( 'NONE',  ( 0.000000000000000000, 0.000000000000000000, 160.0000000000000000 ) ) ;
#81 = EDGE_CURVE ( 'NONE', #113, #201, #171, .T. ) ;
#82 = AXIS2_PLACEMENT_3D ( 'NONE', #53, #169, #69 ) ;
#83 = DATE_TIME_ROLE ( 'creation_date' ) ;
#84 = ORIENTED_EDGE ( 'NONE', *, *, #100, .F. ) ;
#85 = DIRECTION ( 'NONE',  ( -0.000000000000000000, -0.000000000000000000, -1.000000000000000000 ) ) ;
#86 = EDGE_CURVE ( 'NONE', #111, #99, #31, .T. ) ;
#87 = CYLINDRICAL_SURFACE ( 'NONE', #105, 6.099999999999999645 ) ;
#88 = DIRECTION ( 'NONE',  ( -1.000000000000000000, 0.000000000000000000, 0.000000000000000000 ) ) ;
#89 = LOCAL_TIME ( 12, 3, 35.00000000000000000, #42 ) ;
#90 = PERSON_AND_ORGANIZATION_ROLE ( 'design_supplier' ) ;
#91 = SHAPE_DEFINITION_REPRESENTATION ( #35, #66 ) ;
#92 = CARTESIAN_POINT ( 'NONE',  ( 0.000000000000000000, 0.000000000000000000, 7.000000000000000000 ) ) ;
#93 = CIRCLE ( 'NONE', #178, 6.099999999999999645 ) ;
#94 = AXIS2_PLACEMENT_3D ( 'NONE', #92, #30, #233 ) ;
#95 = EDGE_LOOP ( 'NONE', ( #168, #217 ) ) ;
#96 = ORIENTED_EDGE ( 'NONE', *, *, #81, .T. ) ;
#97 = CALENDAR_DATE ( 2023, 12, 2 ) ;
#98 = DESIGN_CONTEXT ( 'detailed design', #218, 'design' ) ;
#99 = VERTEX_POINT ( 'NONE', #252 ) ;
#100 = EDGE_CURVE ( 'NONE', #28, #192, #68, .T. ) ;
#101 = CALENDAR_DATE ( 2023, 12, 2 ) ;
#102 = DIRECTION ( 'NONE',  ( 0.000000000000000000, 0.000000000000000000, 1.000000000000000000 ) ) ;
#103 = DIRECTION ( 'NONE',  ( -0.000000000000000000, -0.000000000000000000, -1.000000000000000000 ) ) ;
#104 = APPROVAL_ROLE ( '' ) ;
#105 = AXIS2_PLACEMENT_3D ( 'NONE', #180, #85, #161 ) ;
#106 = DATE_TIME_ROLE ( 'classification_date' ) ;
#107 = CARTESIAN_POINT ( 'NONE',  ( 0.000000000000000000, 0.000000000000000000, 7.000000000000000000 ) ) ;
#108 = PLANE ( 'NONE',  #60 ) ;
#109 = CYLINDRICAL_SURFACE ( 'NONE', #186, 9.000000000000000000 ) ;
#110 = ADVANCED_FACE ( 'NONE', ( #231 ), #255, .F. ) ;
#111 = VERTEX_POINT ( 'NONE', #56 ) ;
#112 = CIRCLE ( 'NONE', #141, 9.000000000000000000 ) ;
#113 = VERTEX_POINT ( 'NONE', #128 ) ;
#114 = AXIS2_PLACEMENT_3D ( 'NONE', #44, #58, #198 ) ;
#115 = ORIENTED_EDGE ( 'NONE', *, *, #172, .T. ) ;
#116 = EDGE_CURVE ( 'NONE', #201, #113, #49, .T. ) ;
#117 = PERSON_AND_ORGANIZATION_ROLE ( 'creator' ) ;
#118 = PERSON_AND_ORGANIZATION ( #196, #57 ) ;
#119 = AXIS2_PLACEMENT_3D ( 'NONE', #6, #209, #54 ) ;
#120 = PERSON_AND_ORGANIZATION ( #196, #57 ) ;
#121 = PERSON_AND_ORGANIZATION_ROLE ( 'classification_officer' ) ;
#122 = FACE_OUTER_BOUND ( 'NONE', #36, .T. ) ;
#123 = PERSON_AND_ORGANIZATION_ROLE ( 'design_owner' ) ;
#124 = ADVANCED_FACE ( 'NONE', ( #129 ), #109, .T. ) ;
#125 = DIRECTION ( 'NONE',  ( 0.000000000000000000, 0.000000000000000000, 1.000000000000000000 ) ) ;
#126 = CARTESIAN_POINT ( 'NONE',  ( -9.000000000000000000, 0.000000000000000000, 7.000000000000000000 ) ) ;
#127 = ORIENTED_EDGE ( 'NONE', *, *, #165, .F. ) ;
#128 = CARTESIAN_POINT ( 'NONE',  ( 9.000000000000000000, 1.102182119232617714E-15, 0.000000000000000000 ) ) ;
#129 = FACE_OUTER_BOUND ( 'NONE', #204, .T. ) ;
#130 = ORIENTED_EDGE ( 'NONE', *, *, #203, .F. ) ;
#131 = VECTOR ( 'NONE', #175, 1000.000000000000000 ) ;
#132 = COORDINATED_UNIVERSAL_TIME_OFFSET ( 1, 0, .AHEAD. ) ;
#133 = CALENDAR_DATE ( 2023, 12, 2 ) ;
#134 = ORIENTED_EDGE ( 'NONE', *, *, #48, .F. ) ;
#135 = PERSON_AND_ORGANIZATION_ROLE ( 'creator' ) ;
#136 = CYLINDRICAL_SURFACE ( 'NONE', #17, 9.000000000000000000 ) ;
#137 = EDGE_LOOP ( 'NONE', ( #154, #254 ) ) ;
#138 = APPROVAL_PERSON_ORGANIZATION ( #25, #7, #104 ) ;
#139 = APPROVAL_STATUS ( 'not_yet_approved' ) ;
#140 = DATE_AND_TIME ( #63, #33 ) ;
#141 = AXIS2_PLACEMENT_3D ( 'NONE', #107, #151, #15 ) ;
#142 = FACE_OUTER_BOUND ( 'NONE', #20, .T. ) ;
#143 = MECHANICAL_CONTEXT ( 'NONE', #45, 'mechanical' ) ;
#144 = DIRECTION ( 'NONE',  ( 1.000000000000000000, 0.000000000000000000, -0.000000000000000000 ) ) ;
#145 = COORDINATED_UNIVERSAL_TIME_OFFSET ( 1, 0, .AHEAD. ) ;
#146 = DIRECTION ( 'NONE',  ( -0.000000000000000000, -0.000000000000000000, -1.000000000000000000 ) ) ;
#147 = AXIS2_PLACEMENT_3D ( 'NONE', #2, #75, #70 ) ;
#148 = ORIENTED_EDGE ( 'NONE', *, *, #86, .F. ) ;
#149 = FACE_OUTER_BOUND ( 'NONE', #95, .T. ) ;
#150 = ORIENTED_EDGE ( 'NONE', *, *, #116, .T. ) ;
#151 = DIRECTION ( 'NONE',  ( 0.000000000000000000, 0.000000000000000000, 1.000000000000000000 ) ) ;
#152 = CIRCLE ( 'NONE', #147, 6.099999999999999645 ) ;
#153 = APPROVAL_PERSON_ORGANIZATION ( #183, #26, #241 ) ;
#154 = ORIENTED_EDGE ( 'NONE', *, *, #116, .F. ) ;
#155 = VECTOR ( 'NONE', #14, 1000.000000000000000 ) ;
#156 =( GEOMETRIC_REPRESENTATION_CONTEXT ( 3 ) GLOBAL_UNCERTAINTY_ASSIGNED_CONTEXT ( ( #185 ) ) GLOBAL_UNIT_ASSIGNED_CONTEXT ( ( #223, #50, #207 ) ) REPRESENTATION_CONTEXT ( 'NONE', 'WORKASPACE' ) );
#157 = FACE_OUTER_BOUND ( 'NONE', #62, .T. ) ;
#158 = ORIENTED_EDGE ( 'NONE', *, *, #22, .F. ) ;
#159 = LINE ( 'NONE', #197, #131 ) ;
#160 = DIRECTION ( 'NONE',  ( 0.000000000000000000, 0.000000000000000000, 1.000000000000000000 ) ) ;
#161 = DIRECTION ( 'NONE',  ( -1.000000000000000000, 0.000000000000000000, 0.000000000000000000 ) ) ;
#162 = CC_DESIGN_PERSON_AND_ORGANIZATION_ASSIGNMENT ( #205, #121, ( #71 ) ) ;
#163 = CLOSED_SHELL ( 'NONE', ( #5, #247, #124, #47, #110, #228, #4 ) ) ;
#164 = DIRECTION ( 'NONE',  ( 0.000000000000000000, 0.000000000000000000, 1.000000000000000000 ) ) ;
#165 = EDGE_CURVE ( 'NONE', #240, #226, #112, .T. ) ;
#166 = CC_DESIGN_SECURITY_CLASSIFICATION ( #71, ( #230 ) ) ;
#167 = ORIENTED_EDGE ( 'NONE', *, *, #3, .F. ) ;
#168 = ORIENTED_EDGE ( 'NONE', *, *, #165, .T. ) ;
#169 = DIRECTION ( 'NONE',  ( 0.000000000000000000, 0.000000000000000000, 1.000000000000000000 ) ) ;
#170 = DATE_AND_TIME ( #133, #225 ) ;
#171 = CIRCLE ( 'NONE', #224, 9.000000000000000000 ) ;
#172 = EDGE_CURVE ( 'NONE', #192, #99, #78, .T. ) ;
#173 = APPROVAL ( #46, 'NEURÈENÝ' ) ;
#174 = ORIENTED_EDGE ( 'NONE', *, *, #172, .F. ) ;
#175 = DIRECTION ( 'NONE',  ( -0.000000000000000000, -0.000000000000000000, -1.000000000000000000 ) ) ;
#176 = CARTESIAN_POINT ( 'NONE',  ( 9.000000000000000000, 1.102182119232617714E-15, 7.000000000000000000 ) ) ;
#177 = DATE_AND_TIME ( #97, #89 ) ;
#178 = AXIS2_PLACEMENT_3D ( 'NONE', #227, #188, #251 ) ;
#179 = CC_DESIGN_DATE_AND_TIME_ASSIGNMENT ( #177, #83, ( #250 ) ) ;
#180 = CARTESIAN_POINT ( 'NONE',  ( 0.000000000000000000, 0.000000000000000000, 160.0000000000000000 ) ) ;
#181 = CC_DESIGN_APPROVAL ( #173, ( #230 ) ) ;
#182 = APPLICATION_PROTOCOL_DEFINITION ( 'international standard', 'config_control_design', 1994, #218 ) ;
#183 = PERSON_AND_ORGANIZATION ( #196, #57 ) ;
#184 = CARTESIAN_POINT ( 'NONE',  ( 6.099999999999999645, 7.470345474798854293E-16, 160.0000000000000000 ) ) ;
#185 = UNCERTAINTY_MEASURE_WITH_UNIT (LENGTH_MEASURE( 1.000000000000000082E-05 ), #223, 'distance_accuracy_value', 'NONE');
#186 = AXIS2_PLACEMENT_3D ( 'NONE', #27, #1, #214 ) ;
#187 = CC_DESIGN_DATE_AND_TIME_ASSIGNMENT ( #140, #106, ( #71 ) ) ;
#188 = DIRECTION ( 'NONE',  ( 0.000000000000000000, 0.000000000000000000, 1.000000000000000000 ) ) ;
#189 = DIRECTION ( 'NONE',  ( -0.000000000000000000, -0.000000000000000000, -1.000000000000000000 ) ) ;
#190 = DIRECTION ( 'NONE',  ( 1.000000000000000000, 0.000000000000000000, 0.000000000000000000 ) ) ;
#191 = CARTESIAN_POINT ( 'NONE',  ( 0.000000000000000000, 0.000000000000000000, 7.000000000000000000 ) ) ;
#192 = VERTEX_POINT ( 'NONE', #237 ) ;
#193 = AXIS2_PLACEMENT_3D ( 'NONE', #212, #55, #32 ) ;
#194 = ORIENTED_EDGE ( 'NONE', *, *, #86, .T. ) ;
#195 = ORIENTED_EDGE ( 'NONE', *, *, #203, .T. ) ;
#196 = PERSON ( 'NEURÈENÝ', 'NEURÈENÝ', 'NEURÈENÝ', ('NEURÈENÝ'), ('NEURÈENÝ'), ('NEURÈENÝ') ) ;
#197 = CARTESIAN_POINT ( 'NONE',  ( -9.000000000000000000, 0.000000000000000000, 7.000000000000000000 ) ) ;
#198 = DIRECTION ( 'NONE',  ( 1.000000000000000000, 0.000000000000000000, 0.000000000000000000 ) ) ;
#199 = PRODUCT_RELATED_PRODUCT_CATEGORY ( 'detail', '', ( #76 ) ) ;
#200 = CIRCLE ( 'NONE', #234, 9.000000000000000000 ) ;
#201 = VERTEX_POINT ( 'NONE', #19 ) ;
#202 = APPLICATION_PROTOCOL_DEFINITION ( 'international standard', 'config_control_design', 1994, #45 ) ;
#203 = EDGE_CURVE ( 'NONE', #240, #201, #159, .T. ) ;
#204 = EDGE_LOOP ( 'NONE', ( #134, #127, #195, #150 ) ) ;
#205 = PERSON_AND_ORGANIZATION ( #196, #57 ) ;
#206 = DIRECTION ( 'NONE',  ( 0.000000000000000000, 0.000000000000000000, 1.000000000000000000 ) ) ;
#207 =( NAMED_UNIT ( * ) SI_UNIT ( $, .STERADIAN. ) SOLID_ANGLE_UNIT ( ) );
#208 = PERSON_AND_ORGANIZATION ( #196, #57 ) ;
#209 = DIRECTION ( 'NONE',  ( -0.000000000000000000, -0.000000000000000000, -1.000000000000000000 ) ) ;
#210 = APPROVAL_DATE_TIME ( #253, #7 ) ;
#211 = EDGE_CURVE ( 'NONE', #99, #192, #239, .T. ) ;
#212 = CARTESIAN_POINT ( 'NONE',  ( 0.000000000000000000, 0.000000000000000000, 0.000000000000000000 ) ) ;
#213 = ORIENTED_EDGE ( 'NONE', *, *, #100, .T. ) ;
#214 = DIRECTION ( 'NONE',  ( -1.000000000000000000, 0.000000000000000000, 0.000000000000000000 ) ) ;
#215 = CARTESIAN_POINT ( 'NONE',  ( 9.000000000000000000, 1.102182119232617714E-15, 7.000000000000000000 ) ) ;
#216 = FACE_BOUND ( 'NONE', #220, .T. ) ;
#217 = ORIENTED_EDGE ( 'NONE', *, *, #22, .T. ) ;
#218 = APPLICATION_CONTEXT ( 'configuration controlled 3d designs of mechanical parts and assemblies' ) ;
#219 = APPROVAL_DATE_TIME ( #170, #26 ) ;
#220 = EDGE_LOOP ( 'NONE', ( #174, #79 ) ) ;
#221 = DIRECTION ( 'NONE',  ( 1.000000000000000000, 0.000000000000000000, 0.000000000000000000 ) ) ;
#222 = PERSON_AND_ORGANIZATION ( #196, #57 ) ;
#223 =( LENGTH_UNIT ( ) NAMED_UNIT ( * ) SI_UNIT ( .MILLI., .METRE. ) );
#224 = AXIS2_PLACEMENT_3D ( 'NONE', #18, #125, #190 ) ;
#225 = LOCAL_TIME ( 12, 3, 35.00000000000000000, #132 ) ;
#226 = VERTEX_POINT ( 'NONE', #176 ) ;
#227 = CARTESIAN_POINT ( 'NONE',  ( 0.000000000000000000, 0.000000000000000000, 160.0000000000000000 ) ) ;
#228 = ADVANCED_FACE ( 'NONE', ( #37 ), #38, .T. ) ;
#229 = COORDINATED_UNIVERSAL_TIME_OFFSET ( 1, 0, .AHEAD. ) ;
#230 = PRODUCT_DEFINITION_FORMATION_WITH_SPECIFIED_SOURCE ( 'LIBOVOLNÝ', '', #76, .NOT_KNOWN. ) ;
#231 = FACE_OUTER_BOUND ( 'NONE', #137, .T. ) ;
#232 = DIRECTION ( 'NONE',  ( 1.000000000000000000, 0.000000000000000000, -0.000000000000000000 ) ) ;
#233 = DIRECTION ( 'NONE',  ( 1.000000000000000000, 0.000000000000000000, 0.000000000000000000 ) ) ;
#234 = AXIS2_PLACEMENT_3D ( 'NONE', #23, #102, #11 ) ;
#235 = AXIS2_PLACEMENT_3D ( 'NONE', #248, #160, #221 ) ;
#236 = CC_DESIGN_APPROVAL ( #7, ( #71 ) ) ;
#237 = CARTESIAN_POINT ( 'NONE',  ( -6.099999999999999645, 0.000000000000000000, 7.000000000000000000 ) ) ;
#238 = CC_DESIGN_PERSON_AND_ORGANIZATION_ASSIGNMENT ( #118, #117, ( #230 ) ) ;
#239 = CIRCLE ( 'NONE', #114, 6.099999999999999645 ) ;
#240 = VERTEX_POINT ( 'NONE', #126 ) ;
#241 = APPROVAL_ROLE ( '' ) ;
#242 = CARTESIAN_POINT ( 'NONE',  ( 0.000000000000000000, 0.000000000000000000, 7.000000000000000000 ) ) ;
#243 = ORIENTED_EDGE ( 'NONE', *, *, #29, .F. ) ;
#244 = ORIENTED_EDGE ( 'NONE', *, *, #3, .T. ) ;
#245 = LOCAL_TIME ( 12, 3, 35.00000000000000000, #145 ) ;
#246 = SECURITY_CLASSIFICATION_LEVEL ( 'unclassified' ) ;
#247 = ADVANCED_FACE ( 'NONE', ( #157 ), #136, .T. ) ;
#248 = CARTESIAN_POINT ( 'NONE',  ( 0.000000000000000000, 0.000000000000000000, 0.000000000000000000 ) ) ;
#249 = CALENDAR_DATE ( 2023, 12, 2 ) ;
#250 = PRODUCT_DEFINITION ( 'NEZNÁMÝ', '', #230, #98 ) ;
#251 = DIRECTION ( 'NONE',  ( 1.000000000000000000, 0.000000000000000000, 0.000000000000000000 ) ) ;
#252 = CARTESIAN_POINT ( 'NONE',  ( 6.099999999999999645, 7.470345474798854293E-16, 7.000000000000000000 ) ) ;
#253 = DATE_AND_TIME ( #249, #245 ) ;
#254 = ORIENTED_EDGE ( 'NONE', *, *, #81, .F. ) ;
#255 = PLANE ( 'NONE',  #82 ) ;
ENDSEC;
END-ISO-10303-21;
