ISO-10303-21;
HEADER;
FILE_DESCRIPTION (( 'STEP AP203' ),
    '1' );
FILE_NAME ('c77b.STEP',
    '2022-07-07T09:34:34',
    ( '' ),
    ( '' ),
    'SwSTEP 2.0',
    'SolidWorks 2019',
    '' );
FILE_SCHEMA (( 'CONFIG_CONTROL_DESIGN' ));
ENDSEC;

DATA;
#1 = CARTESIAN_POINT ( 'NONE',  ( 0.000000000000000000, 0.000000000000000000, 0.000000000000000000 ) ) ;
#2 = VERTEX_POINT ( 'NONE', #95 ) ;
#3 = AXIS2_PLACEMENT_3D ( 'NONE', #1, #48, #194 ) ;
#4 = CARTESIAN_POINT ( 'NONE',  ( 0.000000000000000000, 0.000000000000000000, 8.200000000000013500 ) ) ;
#5 = DIRECTION ( 'NONE',  ( -0.000000000000000000, -0.000000000000000000, -1.000000000000000000 ) ) ;
#6 = EDGE_CURVE ( 'NONE', #144, #18, #137, .T. ) ;
#7 = LOCAL_TIME ( 11, 34, 34.00000000000000000, #10 ) ;
#8 = FACE_OUTER_BOUND ( 'NONE', #257, .T. ) ;
#9 = DIRECTION ( 'NONE',  ( -1.000000000000000000, 0.000000000000000000, 0.000000000000000000 ) ) ;
#10 = COORDINATED_UNIVERSAL_TIME_OFFSET ( 1, 0, .AHEAD. ) ;
#11 = DIRECTION ( 'NONE',  ( 0.000000000000000000, -1.000000000000000000, 0.000000000000000000 ) ) ;
#12 =( NAMED_UNIT ( * ) PLANE_ANGLE_UNIT ( ) SI_UNIT ( $, .RADIAN. ) );
#13 = FACE_OUTER_BOUND ( 'NONE', #169, .T. ) ;
#14 = APPLICATION_PROTOCOL_DEFINITION ( 'international standard', 'config_control_design', 1994, #190 ) ;
#15 = DIRECTION ( 'NONE',  ( -0.000000000000000000, -0.000000000000000000, -1.000000000000000000 ) ) ;
#16 = CALENDAR_DATE ( 2022, 7, 7 ) ;
#17 = CC_DESIGN_PERSON_AND_ORGANIZATION_ASSIGNMENT ( #129, #157, ( #307 ) ) ;
#18 = VERTEX_POINT ( 'NONE', #142 ) ;
#19 = CALENDAR_DATE ( 2022, 7, 7 ) ;
#20 = ADVANCED_FACE ( 'NONE', ( #74 ), #172, .T. ) ;
#21 = AXIS2_PLACEMENT_3D ( 'NONE', #247, #229, #176 ) ;
#22 = DIRECTION ( 'NONE',  ( 1.000000000000000000, 0.000000000000000000, 0.000000000000000000 ) ) ;
#23 = CC_DESIGN_APPROVAL ( #273, ( #284 ) ) ;
#24 = CARTESIAN_POINT ( 'NONE',  ( 0.000000000000000000, 0.000000000000000000, 8.000000000000000000 ) ) ;
#25 = VERTEX_POINT ( 'NONE', #218 ) ;
#26 = PRODUCT_DEFINITION ( 'NEZNÁMÝ', '', #232, #196 ) ;
#27 = ORIENTED_EDGE ( 'NONE', *, *, #193, .F. ) ;
#28 = VERTEX_POINT ( 'NONE', #171 ) ;
#29 = CARTESIAN_POINT ( 'NONE',  ( 13.00000000000000178, 1.592040838891559293E-15, 8.000000000000000000 ) ) ;
#30 = DIRECTION ( 'NONE',  ( 1.000000000000000000, 0.000000000000000000, 0.000000000000000000 ) ) ;
#31 = AXIS2_PLACEMENT_3D ( 'NONE', #265, #143, #147 ) ;
#32 = APPROVAL_STATUS ( 'not_yet_approved' ) ;
#33 = APPROVAL_PERSON_ORGANIZATION ( #277, #273, #127 ) ;
#34 = DIRECTION ( 'NONE',  ( -0.000000000000000000, -0.000000000000000000, -1.000000000000000000 ) ) ;
#35 = LINE ( 'NONE', #62, #105 ) ;
#36 = MANIFOLD_SOLID_BREP ( 'Zaoblit1', #96 ) ;
#37 = DIRECTION ( 'NONE',  ( 0.000000000000000000, 0.000000000000000000, 1.000000000000000000 ) ) ;
#38 = APPROVAL_ROLE ( '' ) ;
#39 = CARTESIAN_POINT ( 'NONE',  ( 0.000000000000000000, 0.000000000000000000, 0.000000000000000000 ) ) ;
#40 = COORDINATED_UNIVERSAL_TIME_OFFSET ( 1, 0, .AHEAD. ) ;
#41 = ADVANCED_FACE ( 'NONE', ( #306 ), #53, .T. ) ;
#42 = ORIENTED_EDGE ( 'NONE', *, *, #278, .F. ) ;
#43 = VECTOR ( 'NONE', #34, 1000.000000000000000 ) ;
#44 = ORIENTED_EDGE ( 'NONE', *, *, #244, .F. ) ;
#45 = DATE_AND_TIME ( #19, #302 ) ;
#46 = ORIENTED_EDGE ( 'NONE', *, *, #207, .T. ) ;
#47 = CIRCLE ( 'NONE', #121, 10.20000000000000107 ) ;
#48 = DIRECTION ( 'NONE',  ( 0.000000000000000000, 0.000000000000000000, 1.000000000000000000 ) ) ;
#49 = ORIENTED_EDGE ( 'NONE', *, *, #207, .F. ) ;
#50 = DIRECTION ( 'NONE',  ( -0.000000000000000000, -0.000000000000000000, -1.000000000000000000 ) ) ;
#51 = CIRCLE ( 'NONE', #31, 13.00000000000000178 ) ;
#52 = AXIS2_PLACEMENT_3D ( 'NONE', #223, #5, #224 ) ;
#53 = CYLINDRICAL_SURFACE ( 'NONE', #124, 10.00000000000000000 ) ;
#54 = DIRECTION ( 'NONE',  ( 0.000000000000000000, 0.000000000000000000, 1.000000000000000000 ) ) ;
#55 = LINE ( 'NONE', #104, #63 ) ;
#56 = AXIS2_PLACEMENT_3D ( 'NONE', #192, #245, #122 ) ;
#57 = DIRECTION ( 'NONE',  ( 1.000000000000000000, 0.000000000000000000, 0.000000000000000000 ) ) ;
#58 = CARTESIAN_POINT ( 'NONE',  ( 0.000000000000000000, 0.000000000000000000, 8.000000000000000000 ) ) ;
#59 = DIRECTION ( 'NONE',  ( 1.000000000000000000, 0.000000000000000000, 0.000000000000000000 ) ) ;
#60 = PERSON ( 'NEURÈENÝ', 'NEURÈENÝ', 'NEURÈENÝ', ('NEURÈENÝ'), ('NEURÈENÝ'), ('NEURÈENÝ') ) ;
#61 = PERSON_AND_ORGANIZATION ( #60, #200 ) ;
#62 = CARTESIAN_POINT ( 'NONE',  ( -10.00000000000000000, 0.000000000000000000, 168.0000000000000000 ) ) ;
#63 = VECTOR ( 'NONE', #99, 1000.000000000000000 ) ;
#64 = CIRCLE ( 'NONE', #164, 10.00000000000000000 ) ;
#65 = PERSON_AND_ORGANIZATION_ROLE ( 'design_supplier' ) ;
#66 = EDGE_CURVE ( 'NONE', #28, #282, #51, .T. ) ;
#67 = ORIENTED_EDGE ( 'NONE', *, *, #292, .T. ) ;
#68 = CC_DESIGN_DATE_AND_TIME_ASSIGNMENT ( #211, #185, ( #284 ) ) ;
#69 = ORIENTED_EDGE ( 'NONE', *, *, #212, .F. ) ;
#70 = EDGE_CURVE ( 'NONE', #18, #144, #188, .T. ) ;
#71 = CARTESIAN_POINT ( 'NONE',  ( 13.00000000000000178, 1.592040838891559293E-15, 8.000000000000000000 ) ) ;
#72 = AXIS2_PLACEMENT_3D ( 'NONE', #85, #153, #125 ) ;
#73 = AXIS2_PLACEMENT_3D ( 'NONE', #80, #128, #270 ) ;
#74 = FACE_OUTER_BOUND ( 'NONE', #242, .T. ) ;
#75 = EDGE_LOOP ( 'NONE', ( #120, #139, #90, #197 ) ) ;
#76 = ADVANCED_FACE ( 'NONE', ( #222 ), #237, .F. ) ;
#77 = ORIENTED_EDGE ( 'NONE', *, *, #292, .F. ) ;
#78 = LOCAL_TIME ( 11, 34, 34.00000000000000000, #103 ) ;
#79 = CARTESIAN_POINT ( 'NONE',  ( 10.20000000000000107, 0.000000000000000000, 8.200000000000013500 ) ) ;
#80 = CARTESIAN_POINT ( 'NONE',  ( -10.20000000000000107, 1.249139735130300365E-15, 8.200000000000013500 ) ) ;
#81 = PERSON_AND_ORGANIZATION ( #60, #200 ) ;
#82 = CARTESIAN_POINT ( 'NONE',  ( 0.000000000000000000, 0.000000000000000000, 8.200000000000013500 ) ) ;
#83 = EDGE_CURVE ( 'NONE', #184, #167, #269, .T. ) ;
#84 = DIRECTION ( 'NONE',  ( -0.000000000000000000, -0.000000000000000000, -1.000000000000000000 ) ) ;
#85 = CARTESIAN_POINT ( 'NONE',  ( 0.000000000000000000, 0.000000000000000000, 168.0000000000000000 ) ) ;
#86 = PERSON_AND_ORGANIZATION ( #60, #200 ) ;
#87 = PRODUCT_RELATED_PRODUCT_CATEGORY ( 'detail', '', ( #307 ) ) ;
#88 = DIRECTION ( 'NONE',  ( 0.000000000000000000, 0.000000000000000000, 1.000000000000000000 ) ) ;
#89 = CIRCLE ( 'NONE', #162, 10.00000000000000000 ) ;
#90 = ORIENTED_EDGE ( 'NONE', *, *, #244, .T. ) ;
#91 = CC_DESIGN_DATE_AND_TIME_ASSIGNMENT ( #159, #286, ( #26 ) ) ;
#92 = ORIENTED_EDGE ( 'NONE', *, *, #140, .T. ) ;
#93 = LINE ( 'NONE', #71, #43 ) ;
#94 = CARTESIAN_POINT ( 'NONE',  ( 0.000000000000000000, 0.000000000000000000, 168.0000000000000000 ) ) ;
#95 = CARTESIAN_POINT ( 'NONE',  ( -10.00000000000000000, 0.000000000000000000, 8.200000000000013500 ) ) ;
#96 = CLOSED_SHELL ( 'NONE', ( #76, #189, #228, #20, #241, #303, #41, #253, #145 ) ) ;
#97 = ORIENTED_EDGE ( 'NONE', *, *, #70, .F. ) ;
#98 = ORIENTED_EDGE ( 'NONE', *, *, #117, .T. ) ;
#99 = DIRECTION ( 'NONE',  ( -0.000000000000000000, -0.000000000000000000, -1.000000000000000000 ) ) ;
#100 = DIRECTION ( 'NONE',  ( 0.000000000000000000, 0.000000000000000000, 1.000000000000000000 ) ) ;
#101 = DIRECTION ( 'NONE',  ( 1.000000000000000000, 0.000000000000000000, -0.000000000000000000 ) ) ;
#102 = CARTESIAN_POINT ( 'NONE',  ( 10.00000000000000000, 1.224646799147353256E-15, 168.0000000000000000 ) ) ;
#103 = COORDINATED_UNIVERSAL_TIME_OFFSET ( 1, 0, .AHEAD. ) ;
#104 = CARTESIAN_POINT ( 'NONE',  ( 10.00000000000000000, 1.224646799147353256E-15, 168.0000000000000000 ) ) ;
#105 = VECTOR ( 'NONE', #150, 1000.000000000000000 ) ;
#106 = CIRCLE ( 'NONE', #136, 13.00000000000000178 ) ;
#107 = PLANE ( 'NONE',  #72 ) ;
#108 = EDGE_CURVE ( 'NONE', #282, #144, #93, .T. ) ;
#109 = APPROVAL_STATUS ( 'not_yet_approved' ) ;
#110 = AXIS2_PLACEMENT_3D ( 'NONE', #24, #258, #118 ) ;
#111 = ORIENTED_EDGE ( 'NONE', *, *, #300, .F. ) ;
#112 = PERSON_AND_ORGANIZATION_ROLE ( 'classification_officer' ) ;
#113 = CC_DESIGN_SECURITY_CLASSIFICATION ( #284, ( #232 ) ) ;
#114 = EDGE_LOOP ( 'NONE', ( #49, #44, #98, #77 ) ) ;
#115 =( GEOMETRIC_REPRESENTATION_CONTEXT ( 3 ) GLOBAL_UNCERTAINTY_ASSIGNED_CONTEXT ( ( #148 ) ) GLOBAL_UNIT_ASSIGNED_CONTEXT ( ( #271, #12, #288 ) ) REPRESENTATION_CONTEXT ( 'NONE', 'WORKASPACE' ) );
#116 = CARTESIAN_POINT ( 'NONE',  ( 0.000000000000000000, 0.000000000000000000, 168.0000000000000000 ) ) ;
#117 = EDGE_CURVE ( 'NONE', #283, #238, #220, .T. ) ;
#118 = DIRECTION ( 'NONE',  ( -1.000000000000000000, 0.000000000000000000, 0.000000000000000000 ) ) ;
#119 = ORIENTED_EDGE ( 'NONE', *, *, #66, .F. ) ;
#120 = ORIENTED_EDGE ( 'NONE', *, *, #140, .F. ) ;
#121 = AXIS2_PLACEMENT_3D ( 'NONE', #249, #15, #133 ) ;
#122 = DIRECTION ( 'NONE',  ( 1.000000000000000000, 0.000000000000000000, 0.000000000000000000 ) ) ;
#123 = CARTESIAN_POINT ( 'NONE',  ( 10.00000000000000000, 1.224646799147353256E-15, 8.200000000000013500 ) ) ;
#124 = AXIS2_PLACEMENT_3D ( 'NONE', #94, #50, #260 ) ;
#125 = DIRECTION ( 'NONE',  ( 1.000000000000000000, 0.000000000000000000, -0.000000000000000000 ) ) ;
#126 = APPROVAL_PERSON_ORGANIZATION ( #86, #163, #227 ) ;
#127 = APPROVAL_ROLE ( '' ) ;
#128 = DIRECTION ( 'NONE',  ( 1.224646799147353207E-16, 1.000000000000000000, -0.000000000000000000 ) ) ;
#129 = PERSON_AND_ORGANIZATION ( #60, #200 ) ;
#130 = DIRECTION ( 'NONE',  ( 1.000000000000000000, 0.000000000000000000, 0.000000000000000000 ) ) ;
#131 = CC_DESIGN_PERSON_AND_ORGANIZATION_ASSIGNMENT ( #256, #112, ( #284 ) ) ;
#132 = DIRECTION ( 'NONE',  ( 0.000000000000000000, 0.000000000000000000, 1.000000000000000000 ) ) ;
#133 = DIRECTION ( 'NONE',  ( 1.000000000000000000, 0.000000000000000000, 0.000000000000000000 ) ) ;
#134 = PERSON_AND_ORGANIZATION_ROLE ( 'creator' ) ;
#135 = AXIS2_PLACEMENT_3D ( 'NONE', #116, #280, #217 ) ;
#136 = AXIS2_PLACEMENT_3D ( 'NONE', #285, #182, #30 ) ;
#137 = CIRCLE ( 'NONE', #3, 13.00000000000000178 ) ;
#138 = APPLICATION_CONTEXT ( 'configuration controlled 3d designs of mechanical parts and assemblies' ) ;
#139 = ORIENTED_EDGE ( 'NONE', *, *, #193, .T. ) ;
#140 = EDGE_CURVE ( 'NONE', #167, #184, #64, .T. ) ;
#141 = ORIENTED_EDGE ( 'NONE', *, *, #300, .T. ) ;
#142 = CARTESIAN_POINT ( 'NONE',  ( -13.00000000000000178, 0.000000000000000000, 0.000000000000000000 ) ) ;
#143 = DIRECTION ( 'NONE',  ( 0.000000000000000000, 0.000000000000000000, 1.000000000000000000 ) ) ;
#144 = VERTEX_POINT ( 'NONE', #226 ) ;
#145 = ADVANCED_FACE ( 'NONE', ( #208 ), #243, .F. ) ;
#146 = AXIS2_PLACEMENT_3D ( 'NONE', #82, #132, #59 ) ;
#147 = DIRECTION ( 'NONE',  ( 1.000000000000000000, 0.000000000000000000, 0.000000000000000000 ) ) ;
#148 = UNCERTAINTY_MEASURE_WITH_UNIT (LENGTH_MEASURE( 1.000000000000000082E-05 ), #271, 'distance_accuracy_value', 'NONE');
#149 = DIRECTION ( 'NONE',  ( 0.000000000000000000, 0.000000000000000000, 1.000000000000000000 ) ) ;
#150 = DIRECTION ( 'NONE',  ( -0.000000000000000000, -0.000000000000000000, -1.000000000000000000 ) ) ;
#151 = CC_DESIGN_PERSON_AND_ORGANIZATION_ASSIGNMENT ( #61, #230, ( #26 ) ) ;
#152 = APPLICATION_PROTOCOL_DEFINITION ( 'international standard', 'config_control_design', 1994, #138 ) ;
#153 = DIRECTION ( 'NONE',  ( 0.000000000000000000, 0.000000000000000000, 1.000000000000000000 ) ) ;
#154 = AXIS2_PLACEMENT_3D ( 'NONE', #39, #254, #101 ) ;
#155 = PERSON_AND_ORGANIZATION ( #60, #200 ) ;
#156 = DIRECTION ( 'NONE',  ( -0.000000000000000000, -0.000000000000000000, -1.000000000000000000 ) ) ;
#157 = PERSON_AND_ORGANIZATION_ROLE ( 'design_owner' ) ;
#158 = DIRECTION ( 'NONE',  ( 0.000000000000000000, 0.000000000000000000, 1.000000000000000000 ) ) ;
#159 = DATE_AND_TIME ( #297, #78 ) ;
#160 = PLANE ( 'NONE',  #154 ) ;
#161 = SECURITY_CLASSIFICATION_LEVEL ( 'unclassified' ) ;
#162 = AXIS2_PLACEMENT_3D ( 'NONE', #294, #100, #287 ) ;
#163 = APPROVAL ( #109, 'NEURÈENÝ' ) ;
#164 = AXIS2_PLACEMENT_3D ( 'NONE', #251, #54, #130 ) ;
#165 = APPROVAL_DATE_TIME ( #45, #273 ) ;
#166 = APPROVAL_PERSON_ORGANIZATION ( #248, #268, #38 ) ;
#167 = VERTEX_POINT ( 'NONE', #102 ) ;
#168 = CC_DESIGN_PERSON_AND_ORGANIZATION_ASSIGNMENT ( #81, #134, ( #232 ) ) ;
#169 = EDGE_LOOP ( 'NONE', ( #240, #92 ) ) ;
#170 = LOCAL_TIME ( 11, 34, 34.00000000000000000, #40 ) ;
#171 = CARTESIAN_POINT ( 'NONE',  ( -13.00000000000000178, 0.000000000000000000, 8.000000000000000000 ) ) ;
#172 = CYLINDRICAL_SURFACE ( 'NONE', #110, 13.00000000000000178 ) ;
#173 = ORIENTED_EDGE ( 'NONE', *, *, #278, .T. ) ;
#174 = ORIENTED_EDGE ( 'NONE', *, *, #117, .F. ) ;
#175 = FACE_OUTER_BOUND ( 'NONE', #75, .T. ) ;
#176 = DIRECTION ( 'NONE',  ( -1.000000000000000000, 0.000000000000000000, 0.000000000000000000 ) ) ;
#177 = CYLINDRICAL_SURFACE ( 'NONE', #255, 13.00000000000000178 ) ;
#178 = CALENDAR_DATE ( 2022, 7, 7 ) ;
#179 = CARTESIAN_POINT ( 'NONE',  ( 10.20000000000000107, 0.000000000000000000, 8.000000000000007105 ) ) ;
#180 = EDGE_CURVE ( 'NONE', #184, #2, #35, .T. ) ;
#181 = DATE_AND_TIME ( #178, #7 ) ;
#182 = DIRECTION ( 'NONE',  ( 0.000000000000000000, 0.000000000000000000, 1.000000000000000000 ) ) ;
#183 = DATE_AND_TIME ( #235, #298 ) ;
#184 = VERTEX_POINT ( 'NONE', #203 ) ;
#185 = DATE_TIME_ROLE ( 'classification_date' ) ;
#186 = CC_DESIGN_APPROVAL ( #163, ( #26 ) ) ;
#187 = ADVANCED_BREP_SHAPE_REPRESENTATION ( 'c77b', ( #36, #250 ), #115 ) ;
#188 = CIRCLE ( 'NONE', #56, 13.00000000000000178 ) ;
#189 = ADVANCED_FACE ( 'NONE', ( #175 ), #274, .T. ) ;
#190 = APPLICATION_CONTEXT ( 'configuration controlled 3d designs of mechanical parts and assemblies' ) ;
#191 = ORIENTED_EDGE ( 'NONE', *, *, #234, .T. ) ;
#192 = CARTESIAN_POINT ( 'NONE',  ( 0.000000000000000000, 0.000000000000000000, 0.000000000000000000 ) ) ;
#193 = EDGE_CURVE ( 'NONE', #167, #283, #55, .T. ) ;
#194 = DIRECTION ( 'NONE',  ( 1.000000000000000000, 0.000000000000000000, 0.000000000000000000 ) ) ;
#195 = EDGE_LOOP ( 'NONE', ( #301, #173 ) ) ;
#196 = DESIGN_CONTEXT ( 'detailed design', #138, 'design' ) ;
#197 = ORIENTED_EDGE ( 'NONE', *, *, #180, .F. ) ;
#198 = CC_DESIGN_PERSON_AND_ORGANIZATION_ASSIGNMENT ( #155, #65, ( #232 ) ) ;
#199 = CARTESIAN_POINT ( 'NONE',  ( 0.000000000000000000, 0.000000000000000000, 8.000000000000000000 ) ) ;
#200 = ORGANIZATION ( 'NEURÈENÝ', 'NEURÈENÝ', '' ) ;
#201 = FACE_OUTER_BOUND ( 'NONE', #195, .T. ) ;
#202 = APPROVAL_DATE_TIME ( #181, #163 ) ;
#203 = CARTESIAN_POINT ( 'NONE',  ( -10.00000000000000000, 0.000000000000000000, 168.0000000000000000 ) ) ;
#204 = MECHANICAL_CONTEXT ( 'NONE', #190, 'mechanical' ) ;
#205 = AXIS2_PLACEMENT_3D ( 'NONE', #79, #11, #266 ) ;
#206 = LINE ( 'NONE', #290, #289 ) ;
#207 = EDGE_CURVE ( 'NONE', #2, #25, #213, .T. ) ;
#208 = FACE_OUTER_BOUND ( 'NONE', #114, .T. ) ;
#209 = APPROVAL_STATUS ( 'not_yet_approved' ) ;
#210 = ORIENTED_EDGE ( 'NONE', *, *, #212, .T. ) ;
#211 = DATE_AND_TIME ( #16, #170 ) ;
#212 = EDGE_CURVE ( 'NONE', #2, #283, #89, .T. ) ;
#213 = CIRCLE ( 'NONE', #73, 0.2000000000000005107 ) ;
#214 = CIRCLE ( 'NONE', #216, 10.00000000000000000 ) ;
#215 = EDGE_LOOP ( 'NONE', ( #97, #296 ) ) ;
#216 = AXIS2_PLACEMENT_3D ( 'NONE', #252, #37, #231 ) ;
#217 = DIRECTION ( 'NONE',  ( 1.000000000000000000, 0.000000000000000000, 0.000000000000000000 ) ) ;
#218 = CARTESIAN_POINT ( 'NONE',  ( -10.20000000000000107, 1.249139735130300365E-15, 8.000000000000007105 ) ) ;
#219 = EDGE_LOOP ( 'NONE', ( #69, #46, #111, #174 ) ) ;
#220 = CIRCLE ( 'NONE', #205, 0.2000000000000005107 ) ;
#221 = ORIENTED_EDGE ( 'NONE', *, *, #234, .F. ) ;
#222 = FACE_OUTER_BOUND ( 'NONE', #219, .T. ) ;
#223 = CARTESIAN_POINT ( 'NONE',  ( 0.000000000000000000, 0.000000000000000000, 8.000000000000000000 ) ) ;
#224 = DIRECTION ( 'NONE',  ( 1.000000000000000000, 0.000000000000000000, 0.000000000000000000 ) ) ;
#225 = COORDINATED_UNIVERSAL_TIME_OFFSET ( 1, 0, .AHEAD. ) ;
#226 = CARTESIAN_POINT ( 'NONE',  ( 13.00000000000000178, 1.592040838891559293E-15, 0.000000000000000000 ) ) ;
#227 = APPROVAL_ROLE ( '' ) ;
#228 = ADVANCED_FACE ( 'NONE', ( #8 ), #177, .T. ) ;
#229 = DIRECTION ( 'NONE',  ( -0.000000000000000000, -0.000000000000000000, -1.000000000000000000 ) ) ;
#230 = PERSON_AND_ORGANIZATION_ROLE ( 'creator' ) ;
#231 = DIRECTION ( 'NONE',  ( 1.000000000000000000, 0.000000000000000000, 0.000000000000000000 ) ) ;
#232 = PRODUCT_DEFINITION_FORMATION_WITH_SPECIFIED_SOURCE ( 'LIBOVOLNÝ', '', #307, .NOT_KNOWN. ) ;
#233 = FACE_OUTER_BOUND ( 'NONE', #215, .T. ) ;
#234 = EDGE_CURVE ( 'NONE', #28, #18, #206, .T. ) ;
#235 = CALENDAR_DATE ( 2022, 7, 7 ) ;
#236 = ORIENTED_EDGE ( 'NONE', *, *, #83, .F. ) ;
#237 = TOROIDAL_SURFACE ( 'NONE', #264, 10.20000000000000107, 0.2000000000000000111 ) ;
#238 = VERTEX_POINT ( 'NONE', #179 ) ;
#239 = ORIENTED_EDGE ( 'NONE', *, *, #180, .T. ) ;
#240 = ORIENTED_EDGE ( 'NONE', *, *, #83, .T. ) ;
#241 = ADVANCED_FACE ( 'NONE', ( #267, #201 ), #272, .T. ) ;
#242 = EDGE_LOOP ( 'NONE', ( #305, #119, #191, #263 ) ) ;
#243 = TOROIDAL_SURFACE ( 'NONE', #146, 10.20000000000000107, 0.2000000000000000111 ) ;
#244 = EDGE_CURVE ( 'NONE', #283, #2, #214, .T. ) ;
#245 = DIRECTION ( 'NONE',  ( 0.000000000000000000, 0.000000000000000000, 1.000000000000000000 ) ) ;
#246 = DIRECTION ( 'NONE',  ( 1.000000000000000000, 0.000000000000000000, -0.000000000000000000 ) ) ;
#247 = CARTESIAN_POINT ( 'NONE',  ( 0.000000000000000000, 0.000000000000000000, 168.0000000000000000 ) ) ;
#248 = PERSON_AND_ORGANIZATION ( #60, #200 ) ;
#249 = CARTESIAN_POINT ( 'NONE',  ( 0.000000000000000000, 0.000000000000000000, 8.000000000000000000 ) ) ;
#250 = AXIS2_PLACEMENT_3D ( 'NONE', #293, #88, #57 ) ;
#251 = CARTESIAN_POINT ( 'NONE',  ( 0.000000000000000000, 0.000000000000000000, 168.0000000000000000 ) ) ;
#252 = CARTESIAN_POINT ( 'NONE',  ( 0.000000000000000000, 0.000000000000000000, 8.200000000000013500 ) ) ;
#253 = ADVANCED_FACE ( 'NONE', ( #13 ), #107, .T. ) ;
#254 = DIRECTION ( 'NONE',  ( 0.000000000000000000, 0.000000000000000000, 1.000000000000000000 ) ) ;
#255 = AXIS2_PLACEMENT_3D ( 'NONE', #58, #156, #9 ) ;
#256 = PERSON_AND_ORGANIZATION ( #60, #200 ) ;
#257 = EDGE_LOOP ( 'NONE', ( #42, #281, #262, #221 ) ) ;
#258 = DIRECTION ( 'NONE',  ( -0.000000000000000000, -0.000000000000000000, -1.000000000000000000 ) ) ;
#259 = CIRCLE ( 'NONE', #52, 10.20000000000000107 ) ;
#260 = DIRECTION ( 'NONE',  ( -1.000000000000000000, 0.000000000000000000, 0.000000000000000000 ) ) ;
#261 = PRODUCT_DEFINITION_SHAPE ( 'NONE', 'NONE',  #26 ) ;
#262 = ORIENTED_EDGE ( 'NONE', *, *, #6, .T. ) ;
#263 = ORIENTED_EDGE ( 'NONE', *, *, #70, .T. ) ;
#264 = AXIS2_PLACEMENT_3D ( 'NONE', #4, #149, #22 ) ;
#265 = CARTESIAN_POINT ( 'NONE',  ( 0.000000000000000000, 0.000000000000000000, 8.000000000000000000 ) ) ;
#266 = DIRECTION ( 'NONE',  ( 0.000000000000000000, 0.000000000000000000, -1.000000000000000000 ) ) ;
#267 = FACE_BOUND ( 'NONE', #299, .T. ) ;
#268 = APPROVAL ( #209, 'NEURÈENÝ' ) ;
#269 = CIRCLE ( 'NONE', #135, 10.00000000000000000 ) ;
#270 = DIRECTION ( 'NONE',  ( -1.000000000000000000, 1.224646799147353207E-16, 0.000000000000000000 ) ) ;
#271 =( LENGTH_UNIT ( ) NAMED_UNIT ( * ) SI_UNIT ( .MILLI., .METRE. ) );
#272 = PLANE ( 'NONE',  #276 ) ;
#273 = APPROVAL ( #32, 'NEURÈENÝ' ) ;
#274 = CYLINDRICAL_SURFACE ( 'NONE', #21, 10.00000000000000000 ) ;
#275 = APPROVAL_DATE_TIME ( #183, #268 ) ;
#276 = AXIS2_PLACEMENT_3D ( 'NONE', #199, #158, #246 ) ;
#277 = PERSON_AND_ORGANIZATION ( #60, #200 ) ;
#278 = EDGE_CURVE ( 'NONE', #282, #28, #106, .T. ) ;
#279 = EDGE_LOOP ( 'NONE', ( #27, #236, #239, #210 ) ) ;
#280 = DIRECTION ( 'NONE',  ( 0.000000000000000000, 0.000000000000000000, 1.000000000000000000 ) ) ;
#281 = ORIENTED_EDGE ( 'NONE', *, *, #108, .T. ) ;
#282 = VERTEX_POINT ( 'NONE', #29 ) ;
#283 = VERTEX_POINT ( 'NONE', #123 ) ;
#284 = SECURITY_CLASSIFICATION ( '', '', #161 ) ;
#285 = CARTESIAN_POINT ( 'NONE',  ( 0.000000000000000000, 0.000000000000000000, 8.000000000000000000 ) ) ;
#286 = DATE_TIME_ROLE ( 'creation_date' ) ;
#287 = DIRECTION ( 'NONE',  ( 1.000000000000000000, 0.000000000000000000, 0.000000000000000000 ) ) ;
#288 =( NAMED_UNIT ( * ) SI_UNIT ( $, .STERADIAN. ) SOLID_ANGLE_UNIT ( ) );
#289 = VECTOR ( 'NONE', #84, 1000.000000000000000 ) ;
#290 = CARTESIAN_POINT ( 'NONE',  ( -13.00000000000000178, 0.000000000000000000, 8.000000000000000000 ) ) ;
#291 = CC_DESIGN_APPROVAL ( #268, ( #232 ) ) ;
#292 = EDGE_CURVE ( 'NONE', #25, #238, #259, .T. ) ;
#293 = CARTESIAN_POINT ( 'NONE',  ( 0.000000000000000000, 0.000000000000000000, 0.000000000000000000 ) ) ;
#294 = CARTESIAN_POINT ( 'NONE',  ( 0.000000000000000000, 0.000000000000000000, 8.200000000000013500 ) ) ;
#295 = COORDINATED_UNIVERSAL_TIME_OFFSET ( 1, 0, .AHEAD. ) ;
#296 = ORIENTED_EDGE ( 'NONE', *, *, #6, .F. ) ;
#297 = CALENDAR_DATE ( 2022, 7, 7 ) ;
#298 = LOCAL_TIME ( 11, 34, 34.00000000000000000, #295 ) ;
#299 = EDGE_LOOP ( 'NONE', ( #141, #67 ) ) ;
#300 = EDGE_CURVE ( 'NONE', #238, #25, #47, .T. ) ;
#301 = ORIENTED_EDGE ( 'NONE', *, *, #66, .T. ) ;
#302 = LOCAL_TIME ( 11, 34, 34.00000000000000000, #225 ) ;
#303 = ADVANCED_FACE ( 'NONE', ( #233 ), #160, .F. ) ;
#304 = SHAPE_DEFINITION_REPRESENTATION ( #261, #187 ) ;
#305 = ORIENTED_EDGE ( 'NONE', *, *, #108, .F. ) ;
#306 = FACE_OUTER_BOUND ( 'NONE', #279, .T. ) ;
#307 = PRODUCT ( 'c77b', 'c77b', '', ( #204 ) ) ;
ENDSEC;
END-ISO-10303-21;
