ISO-10303-21;
HEADER;
FILE_DESCRIPTION (( 'STEP AP203' ),
    '1' );
FILE_NAME ('e3c6.STEP',
    '2023-02-12T12:54:13',
    ( '' ),
    ( '' ),
    'SwSTEP 2.0',
    'SolidWorks 2019',
    '' );
FILE_SCHEMA (( 'CONFIG_CONTROL_DESIGN' ));
ENDSEC;

DATA;
#1 = CARTESIAN_POINT ( 'NONE',  ( 0.9499999999999999556, 1.163414459189985682E-16, 100.0000000000000000 ) ) ;
#2 = CARTESIAN_POINT ( 'NONE',  ( 0.000000000000000000, 0.000000000000000000, 0.000000000000000000 ) ) ;
#3 = FACE_OUTER_BOUND ( 'NONE', #165, .T. ) ;
#4 = DIRECTION ( 'NONE',  ( 1.000000000000000000, 0.000000000000000000, 0.000000000000000000 ) ) ;
#5 = PERSON_AND_ORGANIZATION ( #199, #28 ) ;
#6 = AXIS2_PLACEMENT_3D ( 'NONE', #9, #248, #4 ) ;
#7 = EDGE_CURVE ( 'NONE', #183, #118, #171, .T. ) ;
#8 = AXIS2_PLACEMENT_3D ( 'NONE', #2, #143, #106 ) ;
#9 = CARTESIAN_POINT ( 'NONE',  ( 0.000000000000000000, 0.000000000000000000, 100.0000000000000000 ) ) ;
#10 = ORIENTED_EDGE ( 'NONE', *, *, #77, .F. ) ;
#11 = CYLINDRICAL_SURFACE ( 'NONE', #55, 2.000000000000000000 ) ;
#12 = PERSON_AND_ORGANIZATION ( #199, #28 ) ;
#13 = VERTEX_POINT ( 'NONE', #156 ) ;
#14 = EDGE_CURVE ( 'NONE', #13, #35, #154, .T. ) ;
#15 = FACE_OUTER_BOUND ( 'NONE', #124, .T. ) ;
#16 = ORIENTED_EDGE ( 'NONE', *, *, #63, .F. ) ;
#17 = CARTESIAN_POINT ( 'NONE',  ( 0.000000000000000000, 0.000000000000000000, 0.000000000000000000 ) ) ;
#18 = ORIENTED_EDGE ( 'NONE', *, *, #81, .T. ) ;
#19 = ADVANCED_FACE ( 'NONE', ( #243 ), #179, .T. ) ;
#20 = CARTESIAN_POINT ( 'NONE',  ( -2.000000000000000000, 0.000000000000000000, 1.500000000000000000 ) ) ;
#21 = DIRECTION ( 'NONE',  ( 1.000000000000000000, 0.000000000000000000, -0.000000000000000000 ) ) ;
#22 = AXIS2_PLACEMENT_3D ( 'NONE', #29, #177, #246 ) ;
#23 = DATE_AND_TIME ( #195, #174 ) ;
#24 = APPLICATION_CONTEXT ( 'configuration controlled 3d designs of mechanical parts and assemblies' ) ;
#25 = SECURITY_CLASSIFICATION ( '', '', #61 ) ;
#26 = APPROVAL_DATE_TIME ( #109, #247 ) ;
#27 = CLOSED_SHELL ( 'NONE', ( #180, #19, #242, #96, #245, #225, #113 ) ) ;
#28 = ORGANIZATION ( 'NEURÈENÝ', 'NEURÈENÝ', '' ) ;
#29 = CARTESIAN_POINT ( 'NONE',  ( 0.000000000000000000, 0.000000000000000000, 100.0000000000000000 ) ) ;
#30 = APPLICATION_CONTEXT ( 'configuration controlled 3d designs of mechanical parts and assemblies' ) ;
#31 = DIRECTION ( 'NONE',  ( -1.000000000000000000, 0.000000000000000000, 0.000000000000000000 ) ) ;
#32 = DATE_AND_TIME ( #115, #148 ) ;
#33 = ORIENTED_EDGE ( 'NONE', *, *, #196, .F. ) ;
#34 = APPROVAL ( #68, 'NEURÈENÝ' ) ;
#35 = VERTEX_POINT ( 'NONE', #134 ) ;
#36 = APPROVAL_PERSON_ORGANIZATION ( #250, #34, #139 ) ;
#37 = EDGE_CURVE ( 'NONE', #118, #183, #226, .T. ) ;
#38 = DIRECTION ( 'NONE',  ( -0.000000000000000000, -0.000000000000000000, -1.000000000000000000 ) ) ;
#39 = PLANE ( 'NONE',  #220 ) ;
#40 = VECTOR ( 'NONE', #69, 1000.000000000000000 ) ;
#41 = LOCAL_TIME ( 13, 54, 13.00000000000000000, #200 ) ;
#42 = PERSON_AND_ORGANIZATION ( #199, #28 ) ;
#43 = CALENDAR_DATE ( 2023, 12, 2 ) ;
#44 = PERSON_AND_ORGANIZATION ( #199, #28 ) ;
#45 = APPROVAL_PERSON_ORGANIZATION ( #5, #188, #110 ) ;
#46 = PRODUCT ( 'e3c6', 'e3c6', '', ( #204 ) ) ;
#47 = AXIS2_PLACEMENT_3D ( 'NONE', #224, #97, #159 ) ;
#48 = VECTOR ( 'NONE', #38, 1000.000000000000000 ) ;
#49 = CYLINDRICAL_SURFACE ( 'NONE', #202, 0.9499999999999999556 ) ;
#50 = COORDINATED_UNIVERSAL_TIME_OFFSET ( 1, 0, .AHEAD. ) ;
#51 = ORIENTED_EDGE ( 'NONE', *, *, #112, .T. ) ;
#52 = EDGE_LOOP ( 'NONE', ( #84, #147 ) ) ;
#53 = CARTESIAN_POINT ( 'NONE',  ( 0.000000000000000000, 0.000000000000000000, 0.000000000000000000 ) ) ;
#54 =( NAMED_UNIT ( * ) PLANE_ANGLE_UNIT ( ) SI_UNIT ( $, .RADIAN. ) );
#55 = AXIS2_PLACEMENT_3D ( 'NONE', #85, #164, #182 ) ;
#56 = DIRECTION ( 'NONE',  ( 0.000000000000000000, 0.000000000000000000, 1.000000000000000000 ) ) ;
#57 = EDGE_LOOP ( 'NONE', ( #73, #102, #210, #205 ) ) ;
#58 = DIRECTION ( 'NONE',  ( -1.000000000000000000, 0.000000000000000000, 0.000000000000000000 ) ) ;
#59 = CIRCLE ( 'NONE', #233, 0.9499999999999999556 ) ;
#60 = DATE_AND_TIME ( #93, #137 ) ;
#61 = SECURITY_CLASSIFICATION_LEVEL ( 'unclassified' ) ;
#62 = LINE ( 'NONE', #129, #136 ) ;
#63 = EDGE_CURVE ( 'NONE', #230, #100, #62, .T. ) ;
#64 = PRODUCT_RELATED_PRODUCT_CATEGORY ( 'detail', '', ( #46 ) ) ;
#65 = APPROVAL_PERSON_ORGANIZATION ( #42, #247, #111 ) ;
#66 = DIRECTION ( 'NONE',  ( -1.000000000000000000, 0.000000000000000000, 0.000000000000000000 ) ) ;
#67 = CARTESIAN_POINT ( 'NONE',  ( 0.000000000000000000, 0.000000000000000000, 1.500000000000000000 ) ) ;
#68 = APPROVAL_STATUS ( 'not_yet_approved' ) ;
#69 = DIRECTION ( 'NONE',  ( -0.000000000000000000, -0.000000000000000000, -1.000000000000000000 ) ) ;
#70 = ORIENTED_EDGE ( 'NONE', *, *, #81, .F. ) ;
#71 = CARTESIAN_POINT ( 'NONE',  ( -0.9499999999999999556, 0.000000000000000000, 100.0000000000000000 ) ) ;
#72 = PERSON_AND_ORGANIZATION_ROLE ( 'design_owner' ) ;
#73 = ORIENTED_EDGE ( 'NONE', *, *, #125, .F. ) ;
#74 = CARTESIAN_POINT ( 'NONE',  ( 0.9499999999999999556, 1.163414459189985682E-16, 100.0000000000000000 ) ) ;
#75 = ORIENTED_EDGE ( 'NONE', *, *, #92, .T. ) ;
#76 = DIRECTION ( 'NONE',  ( 0.000000000000000000, 0.000000000000000000, 1.000000000000000000 ) ) ;
#77 = EDGE_CURVE ( 'NONE', #190, #251, #160, .T. ) ;
#78 = AXIS2_PLACEMENT_3D ( 'NONE', #53, #211, #142 ) ;
#79 = DATE_AND_TIME ( #173, #121 ) ;
#80 = PERSON_AND_ORGANIZATION_ROLE ( 'creator' ) ;
#81 = EDGE_CURVE ( 'NONE', #100, #251, #214, .T. ) ;
#82 = DESIGN_CONTEXT ( 'detailed design', #30, 'design' ) ;
#83 = CARTESIAN_POINT ( 'NONE',  ( -0.9499999999999999556, 0.000000000000000000, 100.0000000000000000 ) ) ;
#84 = ORIENTED_EDGE ( 'NONE', *, *, #169, .F. ) ;
#85 = CARTESIAN_POINT ( 'NONE',  ( 0.000000000000000000, 0.000000000000000000, 1.500000000000000000 ) ) ;
#86 = ORIENTED_EDGE ( 'NONE', *, *, #37, .F. ) ;
#87 = CIRCLE ( 'NONE', #176, 2.000000000000000000 ) ;
#88 = CARTESIAN_POINT ( 'NONE',  ( 0.000000000000000000, 0.000000000000000000, 1.500000000000000000 ) ) ;
#89 = ORIENTED_EDGE ( 'NONE', *, *, #37, .T. ) ;
#90 = LINE ( 'NONE', #1, #201 ) ;
#91 = DIRECTION ( 'NONE',  ( -0.000000000000000000, -0.000000000000000000, -1.000000000000000000 ) ) ;
#92 = EDGE_CURVE ( 'NONE', #251, #100, #184, .T. ) ;
#93 = CALENDAR_DATE ( 2023, 12, 2 ) ;
#94 = AXIS2_PLACEMENT_3D ( 'NONE', #149, #236, #189 ) ;
#95 = CC_DESIGN_PERSON_AND_ORGANIZATION_ASSIGNMENT ( #222, #128, ( #25 ) ) ;
#96 = ADVANCED_FACE ( 'NONE', ( #206, #3 ), #191, .T. ) ;
#97 = DIRECTION ( 'NONE',  ( 0.000000000000000000, 0.000000000000000000, 1.000000000000000000 ) ) ;
#98 = CARTESIAN_POINT ( 'NONE',  ( 2.000000000000000000, 2.449293598294706414E-16, 1.500000000000000000 ) ) ;
#99 = APPROVAL_DATE_TIME ( #32, #34 ) ;
#100 = VERTEX_POINT ( 'NONE', #101 ) ;
#101 = CARTESIAN_POINT ( 'NONE',  ( 2.000000000000000000, 2.449293598294706414E-16, 0.000000000000000000 ) ) ;
#102 = ORIENTED_EDGE ( 'NONE', *, *, #7, .F. ) ;
#103 =( LENGTH_UNIT ( ) NAMED_UNIT ( * ) SI_UNIT ( .MILLI., .METRE. ) );
#104 = EDGE_LOOP ( 'NONE', ( #168, #161, #18, #10 ) ) ;
#105 = DIRECTION ( 'NONE',  ( -0.000000000000000000, -0.000000000000000000, -1.000000000000000000 ) ) ;
#106 = DIRECTION ( 'NONE',  ( 1.000000000000000000, 0.000000000000000000, 0.000000000000000000 ) ) ;
#107 = CARTESIAN_POINT ( 'NONE',  ( 0.000000000000000000, 0.000000000000000000, 1.500000000000000000 ) ) ;
#108 = AXIS2_PLACEMENT_3D ( 'NONE', #157, #132, #66 ) ;
#109 = DATE_AND_TIME ( #43, #41 ) ;
#110 = APPROVAL_ROLE ( '' ) ;
#111 = APPROVAL_ROLE ( '' ) ;
#112 = EDGE_CURVE ( 'NONE', #230, #190, #133, .T. ) ;
#113 = ADVANCED_FACE ( 'NONE', ( #194 ), #185, .T. ) ;
#114 = CARTESIAN_POINT ( 'NONE',  ( 0.000000000000000000, 0.000000000000000000, 100.0000000000000000 ) ) ;
#115 = CALENDAR_DATE ( 2023, 12, 2 ) ;
#116 = ORIENTED_EDGE ( 'NONE', *, *, #215, .F. ) ;
#117 = DIRECTION ( 'NONE',  ( 0.000000000000000000, 0.000000000000000000, 1.000000000000000000 ) ) ;
#118 = VERTEX_POINT ( 'NONE', #74 ) ;
#119 = DIRECTION ( 'NONE',  ( 1.000000000000000000, 0.000000000000000000, -0.000000000000000000 ) ) ;
#120 =( NAMED_UNIT ( * ) SI_UNIT ( $, .STERADIAN. ) SOLID_ANGLE_UNIT ( ) );
#121 = LOCAL_TIME ( 13, 54, 13.00000000000000000, #241 ) ;
#122 = DIRECTION ( 'NONE',  ( 1.000000000000000000, 0.000000000000000000, 0.000000000000000000 ) ) ;
#123 = APPLICATION_PROTOCOL_DEFINITION ( 'international standard', 'config_control_design', 1994, #24 ) ;
#124 = EDGE_LOOP ( 'NONE', ( #86, #253, #213, #33 ) ) ;
#125 = EDGE_CURVE ( 'NONE', #118, #13, #90, .T. ) ;
#126 = DIRECTION ( 'NONE',  ( 0.000000000000000000, 0.000000000000000000, 1.000000000000000000 ) ) ;
#127 = DATE_TIME_ROLE ( 'creation_date' ) ;
#128 = PERSON_AND_ORGANIZATION_ROLE ( 'classification_officer' ) ;
#129 = CARTESIAN_POINT ( 'NONE',  ( 2.000000000000000000, 2.449293598294706414E-16, 1.500000000000000000 ) ) ;
#130 = CC_DESIGN_APPROVAL ( #188, ( #244 ) ) ;
#131 = PRODUCT_DEFINITION ( 'NEZNÁMÝ', '', #244, #82 ) ;
#132 = DIRECTION ( 'NONE',  ( -0.000000000000000000, -0.000000000000000000, -1.000000000000000000 ) ) ;
#133 = CIRCLE ( 'NONE', #163, 2.000000000000000000 ) ;
#134 = CARTESIAN_POINT ( 'NONE',  ( -0.9499999999999999556, 0.000000000000000000, 1.500000000000000000 ) ) ;
#135 = UNCERTAINTY_MEASURE_WITH_UNIT (LENGTH_MEASURE( 1.000000000000000082E-05 ), #103, 'distance_accuracy_value', 'NONE');
#136 = VECTOR ( 'NONE', #91, 1000.000000000000000 ) ;
#137 = LOCAL_TIME ( 13, 54, 13.00000000000000000, #217 ) ;
#138 = DIRECTION ( 'NONE',  ( 1.000000000000000000, 0.000000000000000000, 0.000000000000000000 ) ) ;
#139 = APPROVAL_ROLE ( '' ) ;
#140 = EDGE_LOOP ( 'NONE', ( #208, #89 ) ) ;
#141 = CC_DESIGN_PERSON_AND_ORGANIZATION_ASSIGNMENT ( #152, #238, ( #244 ) ) ;
#142 = DIRECTION ( 'NONE',  ( 1.000000000000000000, 0.000000000000000000, 0.000000000000000000 ) ) ;
#143 = DIRECTION ( 'NONE',  ( 0.000000000000000000, 0.000000000000000000, 1.000000000000000000 ) ) ;
#144 = DIRECTION ( 'NONE',  ( -0.000000000000000000, -0.000000000000000000, -1.000000000000000000 ) ) ;
#145 = EDGE_LOOP ( 'NONE', ( #16, #116, #187, #75 ) ) ;
#146 = DIRECTION ( 'NONE',  ( 1.000000000000000000, 0.000000000000000000, 0.000000000000000000 ) ) ;
#147 = ORIENTED_EDGE ( 'NONE', *, *, #14, .F. ) ;
#148 = LOCAL_TIME ( 13, 54, 13.00000000000000000, #50 ) ;
#149 = CARTESIAN_POINT ( 'NONE',  ( 0.000000000000000000, 0.000000000000000000, 100.0000000000000000 ) ) ;
#150 = AXIS2_PLACEMENT_3D ( 'NONE', #172, #117, #146 ) ;
#151 = CC_DESIGN_APPROVAL ( #34, ( #131 ) ) ;
#152 = PERSON_AND_ORGANIZATION ( #199, #28 ) ;
#153 = APPROVAL_STATUS ( 'not_yet_approved' ) ;
#154 = CIRCLE ( 'NONE', #47, 0.9499999999999999556 ) ;
#155 = AXIS2_PLACEMENT_3D ( 'NONE', #88, #126, #119 ) ;
#156 = CARTESIAN_POINT ( 'NONE',  ( 0.9499999999999999556, 1.163414459189985682E-16, 1.500000000000000000 ) ) ;
#157 = CARTESIAN_POINT ( 'NONE',  ( 0.000000000000000000, 0.000000000000000000, 1.500000000000000000 ) ) ;
#158 = ADVANCED_BREP_SHAPE_REPRESENTATION ( 'e3c6', ( #221, #8 ), #239 ) ;
#159 = DIRECTION ( 'NONE',  ( 1.000000000000000000, 0.000000000000000000, 0.000000000000000000 ) ) ;
#160 = LINE ( 'NONE', #20, #40 ) ;
#161 = ORIENTED_EDGE ( 'NONE', *, *, #63, .T. ) ;
#162 = CC_DESIGN_PERSON_AND_ORGANIZATION_ASSIGNMENT ( #237, #72, ( #46 ) ) ;
#163 = AXIS2_PLACEMENT_3D ( 'NONE', #107, #76, #209 ) ;
#164 = DIRECTION ( 'NONE',  ( -0.000000000000000000, -0.000000000000000000, -1.000000000000000000 ) ) ;
#165 = EDGE_LOOP ( 'NONE', ( #255, #51 ) ) ;
#166 = CARTESIAN_POINT ( 'NONE',  ( 0.000000000000000000, 0.000000000000000000, 100.0000000000000000 ) ) ;
#167 = DIRECTION ( 'NONE',  ( 0.000000000000000000, 0.000000000000000000, 1.000000000000000000 ) ) ;
#168 = ORIENTED_EDGE ( 'NONE', *, *, #112, .F. ) ;
#169 = EDGE_CURVE ( 'NONE', #35, #13, #59, .T. ) ;
#170 = CC_DESIGN_DATE_AND_TIME_ASSIGNMENT ( #60, #216, ( #25 ) ) ;
#171 = CIRCLE ( 'NONE', #22, 0.9499999999999999556 ) ;
#172 = CARTESIAN_POINT ( 'NONE',  ( 0.000000000000000000, 0.000000000000000000, 0.000000000000000000 ) ) ;
#173 = CALENDAR_DATE ( 2023, 12, 2 ) ;
#174 = LOCAL_TIME ( 13, 54, 13.00000000000000000, #186 ) ;
#175 = SHAPE_DEFINITION_REPRESENTATION ( #223, #158 ) ;
#176 = AXIS2_PLACEMENT_3D ( 'NONE', #67, #232, #138 ) ;
#177 = DIRECTION ( 'NONE',  ( 0.000000000000000000, 0.000000000000000000, 1.000000000000000000 ) ) ;
#178 = CC_DESIGN_SECURITY_CLASSIFICATION ( #25, ( #244 ) ) ;
#179 = CYLINDRICAL_SURFACE ( 'NONE', #108, 2.000000000000000000 ) ;
#180 = ADVANCED_FACE ( 'NONE', ( #15 ), #252, .T. ) ;
#181 = FACE_OUTER_BOUND ( 'NONE', #145, .T. ) ;
#182 = DIRECTION ( 'NONE',  ( -1.000000000000000000, 0.000000000000000000, 0.000000000000000000 ) ) ;
#183 = VERTEX_POINT ( 'NONE', #83 ) ;
#184 = CIRCLE ( 'NONE', #78, 2.000000000000000000 ) ;
#185 = PLANE ( 'NONE',  #94 ) ;
#186 = COORDINATED_UNIVERSAL_TIME_OFFSET ( 1, 0, .AHEAD. ) ;
#187 = ORIENTED_EDGE ( 'NONE', *, *, #77, .T. ) ;
#188 = APPROVAL ( #153, 'NEURÈENÝ' ) ;
#189 = DIRECTION ( 'NONE',  ( 1.000000000000000000, 0.000000000000000000, -0.000000000000000000 ) ) ;
#190 = VERTEX_POINT ( 'NONE', #249 ) ;
#191 = PLANE ( 'NONE',  #155 ) ;
#192 = APPLICATION_PROTOCOL_DEFINITION ( 'international standard', 'config_control_design', 1994, #30 ) ;
#193 = AXIS2_PLACEMENT_3D ( 'NONE', #166, #105, #58 ) ;
#194 = FACE_OUTER_BOUND ( 'NONE', #140, .T. ) ;
#195 = CALENDAR_DATE ( 2023, 12, 2 ) ;
#196 = EDGE_CURVE ( 'NONE', #183, #35, #254, .T. ) ;
#197 = CC_DESIGN_PERSON_AND_ORGANIZATION_ASSIGNMENT ( #44, #80, ( #244 ) ) ;
#198 = APPROVAL_STATUS ( 'not_yet_approved' ) ;
#199 = PERSON ( 'NEURÈENÝ', 'NEURÈENÝ', 'NEURÈENÝ', ('NEURÈENÝ'), ('NEURÈENÝ'), ('NEURÈENÝ') ) ;
#200 = COORDINATED_UNIVERSAL_TIME_OFFSET ( 1, 0, .AHEAD. ) ;
#201 = VECTOR ( 'NONE', #144, 1000.000000000000000 ) ;
#202 = AXIS2_PLACEMENT_3D ( 'NONE', #114, #203, #31 ) ;
#203 = DIRECTION ( 'NONE',  ( -0.000000000000000000, -0.000000000000000000, -1.000000000000000000 ) ) ;
#204 = MECHANICAL_CONTEXT ( 'NONE', #24, 'mechanical' ) ;
#205 = ORIENTED_EDGE ( 'NONE', *, *, #169, .T. ) ;
#206 = FACE_BOUND ( 'NONE', #52, .T. ) ;
#207 = PERSON_AND_ORGANIZATION_ROLE ( 'creator' ) ;
#208 = ORIENTED_EDGE ( 'NONE', *, *, #7, .T. ) ;
#209 = DIRECTION ( 'NONE',  ( 1.000000000000000000, 0.000000000000000000, 0.000000000000000000 ) ) ;
#210 = ORIENTED_EDGE ( 'NONE', *, *, #196, .T. ) ;
#211 = DIRECTION ( 'NONE',  ( 0.000000000000000000, 0.000000000000000000, 1.000000000000000000 ) ) ;
#212 = FACE_OUTER_BOUND ( 'NONE', #235, .T. ) ;
#213 = ORIENTED_EDGE ( 'NONE', *, *, #14, .T. ) ;
#214 = CIRCLE ( 'NONE', #150, 2.000000000000000000 ) ;
#215 = EDGE_CURVE ( 'NONE', #190, #230, #87, .T. ) ;
#216 = DATE_TIME_ROLE ( 'classification_date' ) ;
#217 = COORDINATED_UNIVERSAL_TIME_OFFSET ( 1, 0, .AHEAD. ) ;
#218 = CC_DESIGN_PERSON_AND_ORGANIZATION_ASSIGNMENT ( #12, #207, ( #131 ) ) ;
#219 = APPROVAL_DATE_TIME ( #79, #188 ) ;
#220 = AXIS2_PLACEMENT_3D ( 'NONE', #17, #167, #21 ) ;
#221 = MANIFOLD_SOLID_BREP ( 'Pøidat vysunutím3', #27 ) ;
#222 = PERSON_AND_ORGANIZATION ( #199, #28 ) ;
#223 = PRODUCT_DEFINITION_SHAPE ( 'NONE', 'NONE',  #131 ) ;
#224 = CARTESIAN_POINT ( 'NONE',  ( 0.000000000000000000, 0.000000000000000000, 1.500000000000000000 ) ) ;
#225 = ADVANCED_FACE ( 'NONE', ( #228 ), #49, .T. ) ;
#226 = CIRCLE ( 'NONE', #6, 0.9499999999999999556 ) ;
#227 = CC_DESIGN_APPROVAL ( #247, ( #25 ) ) ;
#228 = FACE_OUTER_BOUND ( 'NONE', #57, .T. ) ;
#229 = CARTESIAN_POINT ( 'NONE',  ( -2.000000000000000000, 0.000000000000000000, 0.000000000000000000 ) ) ;
#230 = VERTEX_POINT ( 'NONE', #98 ) ;
#231 = ORIENTED_EDGE ( 'NONE', *, *, #92, .F. ) ;
#232 = DIRECTION ( 'NONE',  ( 0.000000000000000000, 0.000000000000000000, 1.000000000000000000 ) ) ;
#233 = AXIS2_PLACEMENT_3D ( 'NONE', #234, #56, #122 ) ;
#234 = CARTESIAN_POINT ( 'NONE',  ( 0.000000000000000000, 0.000000000000000000, 1.500000000000000000 ) ) ;
#235 = EDGE_LOOP ( 'NONE', ( #231, #70 ) ) ;
#236 = DIRECTION ( 'NONE',  ( 0.000000000000000000, 0.000000000000000000, 1.000000000000000000 ) ) ;
#237 = PERSON_AND_ORGANIZATION ( #199, #28 ) ;
#238 = PERSON_AND_ORGANIZATION_ROLE ( 'design_supplier' ) ;
#239 =( GEOMETRIC_REPRESENTATION_CONTEXT ( 3 ) GLOBAL_UNCERTAINTY_ASSIGNED_CONTEXT ( ( #135 ) ) GLOBAL_UNIT_ASSIGNED_CONTEXT ( ( #103, #54, #120 ) ) REPRESENTATION_CONTEXT ( 'NONE', 'WORKASPACE' ) );
#240 = CC_DESIGN_DATE_AND_TIME_ASSIGNMENT ( #23, #127, ( #131 ) ) ;
#241 = COORDINATED_UNIVERSAL_TIME_OFFSET ( 1, 0, .AHEAD. ) ;
#242 = ADVANCED_FACE ( 'NONE', ( #181 ), #11, .T. ) ;
#243 = FACE_OUTER_BOUND ( 'NONE', #104, .T. ) ;
#244 = PRODUCT_DEFINITION_FORMATION_WITH_SPECIFIED_SOURCE ( 'LIBOVOLNÝ', '', #46, .NOT_KNOWN. ) ;
#245 = ADVANCED_FACE ( 'NONE', ( #212 ), #39, .F. ) ;
#246 = DIRECTION ( 'NONE',  ( 1.000000000000000000, 0.000000000000000000, 0.000000000000000000 ) ) ;
#247 = APPROVAL ( #198, 'NEURÈENÝ' ) ;
#248 = DIRECTION ( 'NONE',  ( 0.000000000000000000, 0.000000000000000000, 1.000000000000000000 ) ) ;
#249 = CARTESIAN_POINT ( 'NONE',  ( -2.000000000000000000, 0.000000000000000000, 1.500000000000000000 ) ) ;
#250 = PERSON_AND_ORGANIZATION ( #199, #28 ) ;
#251 = VERTEX_POINT ( 'NONE', #229 ) ;
#252 = CYLINDRICAL_SURFACE ( 'NONE', #193, 0.9499999999999999556 ) ;
#253 = ORIENTED_EDGE ( 'NONE', *, *, #125, .T. ) ;
#254 = LINE ( 'NONE', #71, #48 ) ;
#255 = ORIENTED_EDGE ( 'NONE', *, *, #215, .T. ) ;
ENDSEC;
END-ISO-10303-21;
