ISO-10303-21;
HEADER;
FILE_DESCRIPTION (( 'STEP AP203' ),
    '1' );
FILE_NAME ('7407.STEP',
    '2022-07-07T09:35:36',
    ( '' ),
    ( '' ),
    'SwSTEP 2.0',
    'SolidWorks 2019',
    '' );
FILE_SCHEMA (( 'CONFIG_CONTROL_DESIGN' ));
ENDSEC;

DATA;
#1 = ADVANCED_FACE ( 'NONE', ( #127 ), #223, .T. ) ;
#2 = DIRECTION ( 'NONE',  ( 1.000000000000000000, 0.000000000000000000, -0.000000000000000000 ) ) ;
#3 = DATE_TIME_ROLE ( 'creation_date' ) ;
#4 =( NAMED_UNIT ( * ) SI_UNIT ( $, .STERADIAN. ) SOLID_ANGLE_UNIT ( ) );
#5 = TOROIDAL_SURFACE ( 'NONE', #36, 9.199999999999999289, 0.2000000000000000111 ) ;
#6 = PERSON_AND_ORGANIZATION ( #217, #213 ) ;
#7 = VECTOR ( 'NONE', #48, 1000.000000000000000 ) ;
#8 = AXIS2_PLACEMENT_3D ( 'NONE', #156, #228, #82 ) ;
#9 = CALENDAR_DATE ( 2022, 7, 7 ) ;
#10 = FACE_OUTER_BOUND ( 'NONE', #244, .T. ) ;
#11 = PERSON_AND_ORGANIZATION_ROLE ( 'design_supplier' ) ;
#12 = DIRECTION ( 'NONE',  ( 1.000000000000000000, 0.000000000000000000, 0.000000000000000000 ) ) ;
#13 = SHAPE_DEFINITION_REPRESENTATION ( #63, #234 ) ;
#14 = DIRECTION ( 'NONE',  ( 1.000000000000000000, 0.000000000000000000, -0.000000000000000000 ) ) ;
#15 = VERTEX_POINT ( 'NONE', #174 ) ;
#16 = ORIENTED_EDGE ( 'NONE', *, *, #302, .F. ) ;
#17 = CARTESIAN_POINT ( 'NONE',  ( 0.000000000000000000, 0.000000000000000000, 0.000000000000000000 ) ) ;
#18 = PRODUCT_DEFINITION_FORMATION_WITH_SPECIFIED_SOURCE ( 'LIBOVOLNÝ', '', #207, .NOT_KNOWN. ) ;
#19 = LINE ( 'NONE', #154, #177 ) ;
#20 = CARTESIAN_POINT ( 'NONE',  ( 0.000000000000000000, 0.000000000000000000, 7.199999999999984190 ) ) ;
#21 = DIRECTION ( 'NONE',  ( 0.000000000000000000, 0.000000000000000000, 1.000000000000000000 ) ) ;
#22 = EDGE_CURVE ( 'NONE', #270, #277, #275, .T. ) ;
#23 = DIRECTION ( 'NONE',  ( 1.000000000000000000, 0.000000000000000000, 0.000000000000000000 ) ) ;
#24 = CARTESIAN_POINT ( 'NONE',  ( -9.000000000000000000, 0.000000000000000000, 507.0000000000000000 ) ) ;
#25 = AXIS2_PLACEMENT_3D ( 'NONE', #283, #88, #141 ) ;
#26 = DATE_AND_TIME ( #161, #43 ) ;
#27 = CARTESIAN_POINT ( 'NONE',  ( 9.000000000000000000, 1.102182119232617714E-15, 507.0000000000000000 ) ) ;
#28 = EDGE_LOOP ( 'NONE', ( #245, #199, #75, #126 ) ) ;
#29 = PERSON_AND_ORGANIZATION ( #217, #213 ) ;
#30 = ORIENTED_EDGE ( 'NONE', *, *, #125, .F. ) ;
#31 = CIRCLE ( 'NONE', #46, 9.199999999999999289 ) ;
#32 = ORIENTED_EDGE ( 'NONE', *, *, #66, .F. ) ;
#33 = EDGE_CURVE ( 'NONE', #147, #15, #164, .T. ) ;
#34 = ORIENTED_EDGE ( 'NONE', *, *, #83, .T. ) ;
#35 = FACE_OUTER_BOUND ( 'NONE', #98, .T. ) ;
#36 = AXIS2_PLACEMENT_3D ( 'NONE', #255, #39, #280 ) ;
#37 = APPROVAL_PERSON_ORGANIZATION ( #163, #157, #121 ) ;
#38 = CYLINDRICAL_SURFACE ( 'NONE', #124, 9.000000000000000000 ) ;
#39 = DIRECTION ( 'NONE',  ( 0.000000000000000000, 0.000000000000000000, 1.000000000000000000 ) ) ;
#40 = UNCERTAINTY_MEASURE_WITH_UNIT (LENGTH_MEASURE( 1.000000000000000082E-05 ), #112, 'distance_accuracy_value', 'NONE');
#41 = PRODUCT_DEFINITION ( 'NEZNÁMÝ', '', #18, #202 ) ;
#42 = DIRECTION ( 'NONE',  ( -1.000000000000000000, 0.000000000000000000, 0.000000000000000000 ) ) ;
#43 = LOCAL_TIME ( 11, 35, 36.00000000000000000, #285 ) ;
#44 = PERSON_AND_ORGANIZATION_ROLE ( 'design_owner' ) ;
#45 = DIRECTION ( 'NONE',  ( 1.000000000000000000, 0.000000000000000000, 0.000000000000000000 ) ) ;
#46 = AXIS2_PLACEMENT_3D ( 'NONE', #62, #180, #85 ) ;
#47 = APPROVAL_STATUS ( 'not_yet_approved' ) ;
#48 = DIRECTION ( 'NONE',  ( -0.000000000000000000, -0.000000000000000000, -1.000000000000000000 ) ) ;
#49 = APPROVAL_DATE_TIME ( #94, #157 ) ;
#50 = CIRCLE ( 'NONE', #123, 12.00000000000000178 ) ;
#51 = DIRECTION ( 'NONE',  ( 1.000000000000000000, 0.000000000000000000, -0.000000000000000000 ) ) ;
#52 = EDGE_LOOP ( 'NONE', ( #30, #146, #34, #16 ) ) ;
#53 = DIRECTION ( 'NONE',  ( 0.000000000000000000, 0.000000000000000000, 1.000000000000000000 ) ) ;
#54 = ORIENTED_EDGE ( 'NONE', *, *, #239, .T. ) ;
#55 = SECURITY_CLASSIFICATION ( '', '', #192 ) ;
#56 = ORIENTED_EDGE ( 'NONE', *, *, #279, .F. ) ;
#57 = ORIENTED_EDGE ( 'NONE', *, *, #232, .F. ) ;
#58 = CYLINDRICAL_SURFACE ( 'NONE', #186, 9.000000000000000000 ) ;
#59 = CARTESIAN_POINT ( 'NONE',  ( -12.00000000000000178, 0.000000000000000000, 7.000000000000000000 ) ) ;
#60 = CARTESIAN_POINT ( 'NONE',  ( 12.00000000000000178, 1.469576158976824144E-15, 0.000000000000000000 ) ) ;
#61 = CYLINDRICAL_SURFACE ( 'NONE', #133, 12.00000000000000178 ) ;
#62 = CARTESIAN_POINT ( 'NONE',  ( 0.000000000000000000, 0.000000000000000000, 7.000000000000000000 ) ) ;
#63 = PRODUCT_DEFINITION_SHAPE ( 'NONE', 'NONE',  #41 ) ;
#64 = VECTOR ( 'NONE', #74, 1000.000000000000000 ) ;
#65 =( NAMED_UNIT ( * ) PLANE_ANGLE_UNIT ( ) SI_UNIT ( $, .RADIAN. ) );
#66 = EDGE_CURVE ( 'NONE', #147, #270, #96, .T. ) ;
#67 = AXIS2_PLACEMENT_3D ( 'NONE', #209, #158, #142 ) ;
#68 = LINE ( 'NONE', #24, #7 ) ;
#69 = DATE_AND_TIME ( #292, #104 ) ;
#70 = ORIENTED_EDGE ( 'NONE', *, *, #83, .F. ) ;
#71 = AXIS2_PLACEMENT_3D ( 'NONE', #128, #150, #51 ) ;
#72 = PERSON_AND_ORGANIZATION_ROLE ( 'creator' ) ;
#73 = LOCAL_TIME ( 11, 35, 36.00000000000000000, #216 ) ;
#74 = DIRECTION ( 'NONE',  ( -0.000000000000000000, -0.000000000000000000, -1.000000000000000000 ) ) ;
#75 = ORIENTED_EDGE ( 'NONE', *, *, #274, .F. ) ;
#76 = ORIENTED_EDGE ( 'NONE', *, *, #33, .T. ) ;
#77 = EDGE_LOOP ( 'NONE', ( #129, #70 ) ) ;
#78 = EDGE_CURVE ( 'NONE', #298, #270, #183, .T. ) ;
#79 = FACE_BOUND ( 'NONE', #149, .T. ) ;
#80 = CARTESIAN_POINT ( 'NONE',  ( 0.000000000000000000, 0.000000000000000000, 0.000000000000000000 ) ) ;
#81 = DIRECTION ( 'NONE',  ( -0.000000000000000000, -0.000000000000000000, -1.000000000000000000 ) ) ;
#82 = DIRECTION ( 'NONE',  ( 1.000000000000000000, 0.000000000000000000, 0.000000000000000000 ) ) ;
#83 = EDGE_CURVE ( 'NONE', #222, #102, #50, .T. ) ;
#84 = DIRECTION ( 'NONE',  ( 1.000000000000000000, 0.000000000000000000, 0.000000000000000000 ) ) ;
#85 = DIRECTION ( 'NONE',  ( 1.000000000000000000, 0.000000000000000000, 0.000000000000000000 ) ) ;
#86 = AXIS2_PLACEMENT_3D ( 'NONE', #20, #253, #45 ) ;
#87 = CARTESIAN_POINT ( 'NONE',  ( 0.000000000000000000, 0.000000000000000000, 7.000000000000000000 ) ) ;
#88 = DIRECTION ( 'NONE',  ( 0.000000000000000000, 0.000000000000000000, 1.000000000000000000 ) ) ;
#89 = EDGE_CURVE ( 'NONE', #15, #147, #226, .T. ) ;
#90 = CLOSED_SHELL ( 'NONE', ( #173, #215, #178, #137, #101, #189, #130, #1, #106 ) ) ;
#91 = CC_DESIGN_APPROVAL ( #157, ( #55 ) ) ;
#92 = PERSON_AND_ORGANIZATION ( #217, #213 ) ;
#93 = CC_DESIGN_PERSON_AND_ORGANIZATION_ASSIGNMENT ( #188, #11, ( #18 ) ) ;
#94 = DATE_AND_TIME ( #294, #231 ) ;
#95 = PERSON_AND_ORGANIZATION_ROLE ( 'classification_officer' ) ;
#96 = LINE ( 'NONE', #27, #64 ) ;
#97 = AXIS2_PLACEMENT_3D ( 'NONE', #256, #200, #42 ) ;
#98 = EDGE_LOOP ( 'NONE', ( #32, #299, #248, #194 ) ) ;
#99 = CARTESIAN_POINT ( 'NONE',  ( 0.000000000000000000, 0.000000000000000000, 7.000000000000000000 ) ) ;
#100 = ORIENTED_EDGE ( 'NONE', *, *, #33, .F. ) ;
#101 = ADVANCED_FACE ( 'NONE', ( #79, #221 ), #278, .T. ) ;
#102 = VERTEX_POINT ( 'NONE', #214 ) ;
#103 = DIRECTION ( 'NONE',  ( 1.000000000000000000, 0.000000000000000000, 0.000000000000000000 ) ) ;
#104 = LOCAL_TIME ( 11, 35, 36.00000000000000000, #117 ) ;
#105 = DIRECTION ( 'NONE',  ( 1.000000000000000000, 0.000000000000000000, 0.000000000000000000 ) ) ;
#106 = ADVANCED_FACE ( 'NONE', ( #10 ), #5, .F. ) ;
#107 = DIRECTION ( 'NONE',  ( 0.000000000000000000, 0.000000000000000000, 1.000000000000000000 ) ) ;
#108 = FACE_OUTER_BOUND ( 'NONE', #196, .T. ) ;
#109 = CC_DESIGN_PERSON_AND_ORGANIZATION_ASSIGNMENT ( #92, #72, ( #18 ) ) ;
#110 = FACE_OUTER_BOUND ( 'NONE', #303, .T. ) ;
#111 = COORDINATED_UNIVERSAL_TIME_OFFSET ( 1, 0, .AHEAD. ) ;
#112 =( LENGTH_UNIT ( ) NAMED_UNIT ( * ) SI_UNIT ( .MILLI., .METRE. ) );
#113 = AXIS2_PLACEMENT_3D ( 'NONE', #99, #21, #179 ) ;
#114 = CC_DESIGN_APPROVAL ( #297, ( #18 ) ) ;
#115 = CARTESIAN_POINT ( 'NONE',  ( 9.199999999999999289, 0.000000000000000000, 6.999999999999992006 ) ) ;
#116 = CARTESIAN_POINT ( 'NONE',  ( -9.000000000000000000, 0.000000000000000000, 7.199999999999984190 ) ) ;
#117 = COORDINATED_UNIVERSAL_TIME_OFFSET ( 1, 0, .AHEAD. ) ;
#118 = DIRECTION ( 'NONE',  ( 0.000000000000000000, 0.000000000000000000, 1.000000000000000000 ) ) ;
#119 = APPROVAL_DATE_TIME ( #290, #297 ) ;
#120 = ORIENTED_EDGE ( 'NONE', *, *, #267, .T. ) ;
#121 = APPROVAL_ROLE ( '' ) ;
#122 = ORIENTED_EDGE ( 'NONE', *, *, #274, .T. ) ;
#123 = AXIS2_PLACEMENT_3D ( 'NONE', #17, #246, #103 ) ;
#124 = AXIS2_PLACEMENT_3D ( 'NONE', #155, #135, #229 ) ;
#125 = EDGE_CURVE ( 'NONE', #300, #171, #252, .T. ) ;
#126 = ORIENTED_EDGE ( 'NONE', *, *, #22, .F. ) ;
#127 = FACE_OUTER_BOUND ( 'NONE', #190, .T. ) ;
#128 = CARTESIAN_POINT ( 'NONE',  ( 0.000000000000000000, 0.000000000000000000, 507.0000000000000000 ) ) ;
#129 = ORIENTED_EDGE ( 'NONE', *, *, #195, .F. ) ;
#130 = ADVANCED_FACE ( 'NONE', ( #35 ), #38, .T. ) ;
#131 = CARTESIAN_POINT ( 'NONE',  ( 0.000000000000000000, 0.000000000000000000, 507.0000000000000000 ) ) ;
#132 = AXIS2_PLACEMENT_3D ( 'NONE', #243, #118, #14 ) ;
#133 = AXIS2_PLACEMENT_3D ( 'NONE', #153, #205, #203 ) ;
#134 = CARTESIAN_POINT ( 'NONE',  ( 0.000000000000000000, 0.000000000000000000, 7.000000000000000000 ) ) ;
#135 = DIRECTION ( 'NONE',  ( -0.000000000000000000, -0.000000000000000000, -1.000000000000000000 ) ) ;
#136 = FACE_OUTER_BOUND ( 'NONE', #77, .T. ) ;
#137 = ADVANCED_FACE ( 'NONE', ( #108 ), #61, .T. ) ;
#138 = PERSON_AND_ORGANIZATION ( #217, #213 ) ;
#139 = CALENDAR_DATE ( 2022, 7, 7 ) ;
#140 = CARTESIAN_POINT ( 'NONE',  ( 9.000000000000000000, 1.102182119232617714E-15, 7.199999999999984190 ) ) ;
#141 = DIRECTION ( 'NONE',  ( 1.000000000000000000, 0.000000000000000000, 0.000000000000000000 ) ) ;
#142 = DIRECTION ( 'NONE',  ( -1.000000000000000000, 1.224646799147353207E-16, 0.000000000000000000 ) ) ;
#143 = CC_DESIGN_PERSON_AND_ORGANIZATION_ASSIGNMENT ( #138, #240, ( #41 ) ) ;
#144 = CARTESIAN_POINT ( 'NONE',  ( 0.000000000000000000, 0.000000000000000000, 507.0000000000000000 ) ) ;
#145 = CIRCLE ( 'NONE', #162, 9.199999999999999289 ) ;
#146 = ORIENTED_EDGE ( 'NONE', *, *, #232, .T. ) ;
#147 = VERTEX_POINT ( 'NONE', #281 ) ;
#148 = ORIENTED_EDGE ( 'NONE', *, *, #125, .T. ) ;
#149 = EDGE_LOOP ( 'NONE', ( #122, #120 ) ) ;
#150 = DIRECTION ( 'NONE',  ( 0.000000000000000000, 0.000000000000000000, 1.000000000000000000 ) ) ;
#151 = EDGE_LOOP ( 'NONE', ( #225, #148 ) ) ;
#152 = CC_DESIGN_PERSON_AND_ORGANIZATION_ASSIGNMENT ( #211, #44, ( #207 ) ) ;
#153 = CARTESIAN_POINT ( 'NONE',  ( 0.000000000000000000, 0.000000000000000000, 7.000000000000000000 ) ) ;
#154 = CARTESIAN_POINT ( 'NONE',  ( 12.00000000000000178, 1.469576158976824144E-15, 7.000000000000000000 ) ) ;
#155 = CARTESIAN_POINT ( 'NONE',  ( 0.000000000000000000, 0.000000000000000000, 507.0000000000000000 ) ) ;
#156 = CARTESIAN_POINT ( 'NONE',  ( 0.000000000000000000, 0.000000000000000000, 7.199999999999984190 ) ) ;
#157 = APPROVAL ( #167, 'NEURÈENÝ' ) ;
#158 = DIRECTION ( 'NONE',  ( 1.224646799147353207E-16, 1.000000000000000000, -0.000000000000000000 ) ) ;
#159 = DIRECTION ( 'NONE',  ( -0.000000000000000000, -0.000000000000000000, -1.000000000000000000 ) ) ;
#160 = APPLICATION_PROTOCOL_DEFINITION ( 'international standard', 'config_control_design', 1994, #185 ) ;
#161 = CALENDAR_DATE ( 2022, 7, 7 ) ;
#162 = AXIS2_PLACEMENT_3D ( 'NONE', #87, #159, #84 ) ;
#163 = PERSON_AND_ORGANIZATION ( #217, #213 ) ;
#164 = CIRCLE ( 'NONE', #197, 9.000000000000000000 ) ;
#165 = ORIENTED_EDGE ( 'NONE', *, *, #22, .T. ) ;
#166 = CIRCLE ( 'NONE', #307, 12.00000000000000178 ) ;
#167 = APPROVAL_STATUS ( 'not_yet_approved' ) ;
#168 = EDGE_CURVE ( 'NONE', #171, #300, #242, .T. ) ;
#169 = DIRECTION ( 'NONE',  ( 0.000000000000000000, 0.000000000000000000, 1.000000000000000000 ) ) ;
#170 = ORIENTED_EDGE ( 'NONE', *, *, #89, .T. ) ;
#171 = VERTEX_POINT ( 'NONE', #59 ) ;
#172 = ORIENTED_EDGE ( 'NONE', *, *, #267, .F. ) ;
#173 = ADVANCED_FACE ( 'NONE', ( #175 ), #204, .F. ) ;
#174 = CARTESIAN_POINT ( 'NONE',  ( -9.000000000000000000, 0.000000000000000000, 507.0000000000000000 ) ) ;
#175 = FACE_OUTER_BOUND ( 'NONE', #28, .T. ) ;
#176 = DIRECTION ( 'NONE',  ( -0.000000000000000000, -0.000000000000000000, -1.000000000000000000 ) ) ;
#177 = VECTOR ( 'NONE', #81, 1000.000000000000000 ) ;
#178 = ADVANCED_FACE ( 'NONE', ( #250 ), #304, .T. ) ;
#179 = DIRECTION ( 'NONE',  ( 1.000000000000000000, 0.000000000000000000, 0.000000000000000000 ) ) ;
#180 = DIRECTION ( 'NONE',  ( -0.000000000000000000, -0.000000000000000000, -1.000000000000000000 ) ) ;
#181 = APPROVAL_STATUS ( 'not_yet_approved' ) ;
#182 = PRODUCT_RELATED_PRODUCT_CATEGORY ( 'detail', '', ( #207 ) ) ;
#183 = CIRCLE ( 'NONE', #236, 9.000000000000000000 ) ;
#184 = APPROVAL_PERSON_ORGANIZATION ( #260, #297, #282 ) ;
#185 = APPLICATION_CONTEXT ( 'configuration controlled 3d designs of mechanical parts and assemblies' ) ;
#186 = AXIS2_PLACEMENT_3D ( 'NONE', #131, #176, #227 ) ;
#187 = ORIENTED_EDGE ( 'NONE', *, *, #261, .F. ) ;
#188 = PERSON_AND_ORGANIZATION ( #217, #213 ) ;
#189 = ADVANCED_FACE ( 'NONE', ( #136 ), #201, .F. ) ;
#190 = EDGE_LOOP ( 'NONE', ( #170, #76 ) ) ;
#191 = DIRECTION ( 'NONE',  ( 0.000000000000000000, -1.000000000000000000, 0.000000000000000000 ) ) ;
#192 = SECURITY_CLASSIFICATION_LEVEL ( 'unclassified' ) ;
#193 = ORIENTED_EDGE ( 'NONE', *, *, #195, .T. ) ;
#194 = ORIENTED_EDGE ( 'NONE', *, *, #78, .T. ) ;
#195 = EDGE_CURVE ( 'NONE', #102, #222, #166, .T. ) ;
#196 = EDGE_LOOP ( 'NONE', ( #57, #295, #296, #193 ) ) ;
#197 = AXIS2_PLACEMENT_3D ( 'NONE', #249, #53, #12 ) ;
#198 = DIRECTION ( 'NONE',  ( 0.000000000000000000, 0.000000000000000000, 1.000000000000000000 ) ) ;
#199 = ORIENTED_EDGE ( 'NONE', *, *, #279, .T. ) ;
#200 = DIRECTION ( 'NONE',  ( -0.000000000000000000, -0.000000000000000000, -1.000000000000000000 ) ) ;
#201 = PLANE ( 'NONE',  #237 ) ;
#202 = DESIGN_CONTEXT ( 'detailed design', #291, 'design' ) ;
#203 = DIRECTION ( 'NONE',  ( -1.000000000000000000, 0.000000000000000000, 0.000000000000000000 ) ) ;
#204 = TOROIDAL_SURFACE ( 'NONE', #8, 9.199999999999999289, 0.2000000000000000111 ) ;
#205 = DIRECTION ( 'NONE',  ( -0.000000000000000000, -0.000000000000000000, -1.000000000000000000 ) ) ;
#206 = DATE_AND_TIME ( #139, #269 ) ;
#207 = PRODUCT ( '7407', '7407', '', ( #287 ) ) ;
#208 = CARTESIAN_POINT ( 'NONE',  ( -9.199999999999999289, 1.126675055215564822E-15, 6.999999999999992006 ) ) ;
#209 = CARTESIAN_POINT ( 'NONE',  ( -9.199999999999999289, 1.126675055215564822E-15, 7.199999999999984190 ) ) ;
#210 = CIRCLE ( 'NONE', #67, 0.2000000000000005107 ) ;
#211 = PERSON_AND_ORGANIZATION ( #217, #213 ) ;
#212 = CC_DESIGN_DATE_AND_TIME_ASSIGNMENT ( #69, #219, ( #55 ) ) ;
#213 = ORGANIZATION ( 'NEURÈENÝ', 'NEURÈENÝ', '' ) ;
#214 = CARTESIAN_POINT ( 'NONE',  ( -12.00000000000000178, 0.000000000000000000, 0.000000000000000000 ) ) ;
#215 = ADVANCED_FACE ( 'NONE', ( #110 ), #58, .T. ) ;
#216 = COORDINATED_UNIVERSAL_TIME_OFFSET ( 1, 0, .AHEAD. ) ;
#217 = PERSON ( 'NEURÈENÝ', 'NEURÈENÝ', 'NEURÈENÝ', ('NEURÈENÝ'), ('NEURÈENÝ'), ('NEURÈENÝ') ) ;
#218 = DIRECTION ( 'NONE',  ( 0.000000000000000000, 0.000000000000000000, -1.000000000000000000 ) ) ;
#219 = DATE_TIME_ROLE ( 'classification_date' ) ;
#220 = APPROVAL_PERSON_ORGANIZATION ( #6, #241, #257 ) ;
#221 = FACE_OUTER_BOUND ( 'NONE', #151, .T. ) ;
#222 = VERTEX_POINT ( 'NONE', #60 ) ;
#223 = PLANE ( 'NONE',  #71 ) ;
#224 = CARTESIAN_POINT ( 'NONE',  ( 0.000000000000000000, 0.000000000000000000, 7.199999999999984190 ) ) ;
#225 = ORIENTED_EDGE ( 'NONE', *, *, #168, .T. ) ;
#226 = CIRCLE ( 'NONE', #268, 9.000000000000000000 ) ;
#227 = DIRECTION ( 'NONE',  ( -1.000000000000000000, 0.000000000000000000, 0.000000000000000000 ) ) ;
#228 = DIRECTION ( 'NONE',  ( 0.000000000000000000, 0.000000000000000000, 1.000000000000000000 ) ) ;
#229 = DIRECTION ( 'NONE',  ( -1.000000000000000000, 0.000000000000000000, 0.000000000000000000 ) ) ;
#230 = CARTESIAN_POINT ( 'NONE',  ( 0.000000000000000000, 0.000000000000000000, 0.000000000000000000 ) ) ;
#231 = LOCAL_TIME ( 11, 35, 36.00000000000000000, #266 ) ;
#232 = EDGE_CURVE ( 'NONE', #300, #222, #19, .T. ) ;
#233 = CARTESIAN_POINT ( 'NONE',  ( 12.00000000000000178, 1.469576158976824144E-15, 7.000000000000000000 ) ) ;
#234 = ADVANCED_BREP_SHAPE_REPRESENTATION ( '7407', ( #251, #25 ), #258 ) ;
#235 = LINE ( 'NONE', #262, #284 ) ;
#236 = AXIS2_PLACEMENT_3D ( 'NONE', #224, #169, #272 ) ;
#237 = AXIS2_PLACEMENT_3D ( 'NONE', #230, #305, #2 ) ;
#238 = APPLICATION_PROTOCOL_DEFINITION ( 'international standard', 'config_control_design', 1994, #291 ) ;
#239 = EDGE_CURVE ( 'NONE', #270, #298, #254, .T. ) ;
#240 = PERSON_AND_ORGANIZATION_ROLE ( 'creator' ) ;
#241 = APPROVAL ( #47, 'NEURÈENÝ' ) ;
#242 = CIRCLE ( 'NONE', #264, 12.00000000000000178 ) ;
#243 = CARTESIAN_POINT ( 'NONE',  ( 0.000000000000000000, 0.000000000000000000, 7.000000000000000000 ) ) ;
#244 = EDGE_LOOP ( 'NONE', ( #56, #247, #165, #172 ) ) ;
#245 = ORIENTED_EDGE ( 'NONE', *, *, #78, .F. ) ;
#246 = DIRECTION ( 'NONE',  ( 0.000000000000000000, 0.000000000000000000, 1.000000000000000000 ) ) ;
#247 = ORIENTED_EDGE ( 'NONE', *, *, #239, .F. ) ;
#248 = ORIENTED_EDGE ( 'NONE', *, *, #261, .T. ) ;
#249 = CARTESIAN_POINT ( 'NONE',  ( 0.000000000000000000, 0.000000000000000000, 507.0000000000000000 ) ) ;
#250 = FACE_OUTER_BOUND ( 'NONE', #52, .T. ) ;
#251 = MANIFOLD_SOLID_BREP ( 'Zaoblit1', #90 ) ;
#252 = CIRCLE ( 'NONE', #113, 12.00000000000000178 ) ;
#253 = DIRECTION ( 'NONE',  ( 0.000000000000000000, 0.000000000000000000, 1.000000000000000000 ) ) ;
#254 = CIRCLE ( 'NONE', #86, 9.000000000000000000 ) ;
#255 = CARTESIAN_POINT ( 'NONE',  ( 0.000000000000000000, 0.000000000000000000, 7.199999999999984190 ) ) ;
#256 = CARTESIAN_POINT ( 'NONE',  ( 0.000000000000000000, 0.000000000000000000, 7.000000000000000000 ) ) ;
#257 = APPROVAL_ROLE ( '' ) ;
#258 =( GEOMETRIC_REPRESENTATION_CONTEXT ( 3 ) GLOBAL_UNCERTAINTY_ASSIGNED_CONTEXT ( ( #40 ) ) GLOBAL_UNIT_ASSIGNED_CONTEXT ( ( #112, #65, #4 ) ) REPRESENTATION_CONTEXT ( 'NONE', 'WORKASPACE' ) );
#259 = DIRECTION ( 'NONE',  ( -0.000000000000000000, -0.000000000000000000, -1.000000000000000000 ) ) ;
#260 = PERSON_AND_ORGANIZATION ( #217, #213 ) ;
#261 = EDGE_CURVE ( 'NONE', #15, #298, #68, .T. ) ;
#262 = CARTESIAN_POINT ( 'NONE',  ( -12.00000000000000178, 0.000000000000000000, 7.000000000000000000 ) ) ;
#263 = AXIS2_PLACEMENT_3D ( 'NONE', #293, #191, #218 ) ;
#264 = AXIS2_PLACEMENT_3D ( 'NONE', #134, #306, #105 ) ;
#265 = APPROVAL_DATE_TIME ( #26, #241 ) ;
#266 = COORDINATED_UNIVERSAL_TIME_OFFSET ( 1, 0, .AHEAD. ) ;
#267 = EDGE_CURVE ( 'NONE', #273, #277, #31, .T. ) ;
#268 = AXIS2_PLACEMENT_3D ( 'NONE', #144, #198, #301 ) ;
#269 = LOCAL_TIME ( 11, 35, 36.00000000000000000, #111 ) ;
#270 = VERTEX_POINT ( 'NONE', #140 ) ;
#271 = ORIENTED_EDGE ( 'NONE', *, *, #66, .T. ) ;
#272 = DIRECTION ( 'NONE',  ( 1.000000000000000000, 0.000000000000000000, 0.000000000000000000 ) ) ;
#273 = VERTEX_POINT ( 'NONE', #208 ) ;
#274 = EDGE_CURVE ( 'NONE', #277, #273, #145, .T. ) ;
#275 = CIRCLE ( 'NONE', #263, 0.1999999999999996503 ) ;
#276 = CC_DESIGN_SECURITY_CLASSIFICATION ( #55, ( #18 ) ) ;
#277 = VERTEX_POINT ( 'NONE', #115 ) ;
#278 = PLANE ( 'NONE',  #132 ) ;
#279 = EDGE_CURVE ( 'NONE', #298, #273, #210, .T. ) ;
#280 = DIRECTION ( 'NONE',  ( 1.000000000000000000, 0.000000000000000000, 0.000000000000000000 ) ) ;
#281 = CARTESIAN_POINT ( 'NONE',  ( 9.000000000000000000, 1.102182119232617714E-15, 507.0000000000000000 ) ) ;
#282 = APPROVAL_ROLE ( '' ) ;
#283 = CARTESIAN_POINT ( 'NONE',  ( 0.000000000000000000, 0.000000000000000000, 0.000000000000000000 ) ) ;
#284 = VECTOR ( 'NONE', #259, 1000.000000000000000 ) ;
#285 = COORDINATED_UNIVERSAL_TIME_OFFSET ( 1, 0, .AHEAD. ) ;
#286 = CC_DESIGN_PERSON_AND_ORGANIZATION_ASSIGNMENT ( #29, #95, ( #55 ) ) ;
#287 = MECHANICAL_CONTEXT ( 'NONE', #185, 'mechanical' ) ;
#288 = CC_DESIGN_APPROVAL ( #241, ( #41 ) ) ;
#289 = CC_DESIGN_DATE_AND_TIME_ASSIGNMENT ( #206, #3, ( #41 ) ) ;
#290 = DATE_AND_TIME ( #9, #73 ) ;
#291 = APPLICATION_CONTEXT ( 'configuration controlled 3d designs of mechanical parts and assemblies' ) ;
#292 = CALENDAR_DATE ( 2022, 7, 7 ) ;
#293 = CARTESIAN_POINT ( 'NONE',  ( 9.199999999999999289, 0.000000000000000000, 7.199999999999984190 ) ) ;
#294 = CALENDAR_DATE ( 2022, 7, 7 ) ;
#295 = ORIENTED_EDGE ( 'NONE', *, *, #168, .F. ) ;
#296 = ORIENTED_EDGE ( 'NONE', *, *, #302, .T. ) ;
#297 = APPROVAL ( #181, 'NEURÈENÝ' ) ;
#298 = VERTEX_POINT ( 'NONE', #116 ) ;
#299 = ORIENTED_EDGE ( 'NONE', *, *, #89, .F. ) ;
#300 = VERTEX_POINT ( 'NONE', #233 ) ;
#301 = DIRECTION ( 'NONE',  ( 1.000000000000000000, 0.000000000000000000, 0.000000000000000000 ) ) ;
#302 = EDGE_CURVE ( 'NONE', #171, #102, #235, .T. ) ;
#303 = EDGE_LOOP ( 'NONE', ( #100, #271, #54, #187 ) ) ;
#304 = CYLINDRICAL_SURFACE ( 'NONE', #97, 12.00000000000000178 ) ;
#305 = DIRECTION ( 'NONE',  ( 0.000000000000000000, 0.000000000000000000, 1.000000000000000000 ) ) ;
#306 = DIRECTION ( 'NONE',  ( 0.000000000000000000, 0.000000000000000000, 1.000000000000000000 ) ) ;
#307 = AXIS2_PLACEMENT_3D ( 'NONE', #80, #107, #23 ) ;
ENDSEC;
END-ISO-10303-21;
