ISO-10303-21;
HEADER;
FILE_DESCRIPTION (( 'STEP AP203' ),
    '1' );
FILE_NAME ('498c.STEP',
    '2022-07-07T10:08:06',
    ( '' ),
    ( '' ),
    'SwSTEP 2.0',
    'SolidWorks 2019',
    '' );
FILE_SCHEMA (( 'CONFIG_CONTROL_DESIGN' ));
ENDSEC;

DATA;
#1 = DIRECTION ( 'NONE',  ( 0.000000000000000000, 0.000000000000000000, 1.000000000000000000 ) ) ;
#2 = VECTOR ( 'NONE', #164, 1000.000000000000000 ) ;
#3 =( NAMED_UNIT ( * ) PLANE_ANGLE_UNIT ( ) SI_UNIT ( $, .RADIAN. ) );
#4 = EDGE_CURVE ( 'NONE', #85, #156, #18, .T. ) ;
#5 = DIRECTION ( 'NONE',  ( 0.000000000000000000, 0.000000000000000000, 1.000000000000000000 ) ) ;
#6 = DIRECTION ( 'NONE',  ( 1.000000000000000000, 0.000000000000000000, 0.000000000000000000 ) ) ;
#7 = AXIS2_PLACEMENT_3D ( 'NONE', #211, #236, #113 ) ;
#8 = CC_DESIGN_APPROVAL ( #268, ( #240 ) ) ;
#9 = EDGE_LOOP ( 'NONE', ( #11, #274 ) ) ;
#10 = MANIFOLD_SOLID_BREP ( 'Zaoblit1', #37 ) ;
#11 = ORIENTED_EDGE ( 'NONE', *, *, #51, .T. ) ;
#12 = DATE_AND_TIME ( #16, #210 ) ;
#13 = APPROVAL_PERSON_ORGANIZATION ( #134, #169, #157 ) ;
#14 = APPROVAL_DATE_TIME ( #230, #222 ) ;
#15 = ORIENTED_EDGE ( 'NONE', *, *, #129, .T. ) ;
#16 = CALENDAR_DATE ( 2022, 7, 7 ) ;
#17 = DIRECTION ( 'NONE',  ( 0.000000000000000000, 0.000000000000000000, 1.000000000000000000 ) ) ;
#18 = CIRCLE ( 'NONE', #239, 3.500000000000000000 ) ;
#19 = CARTESIAN_POINT ( 'NONE',  ( -3.700000000000000178, 4.531193156845206201E-16, 5.199999999999996625 ) ) ;
#20 = COORDINATED_UNIVERSAL_TIME_OFFSET ( 1, 0, .AHEAD. ) ;
#21 = CARTESIAN_POINT ( 'NONE',  ( -6.000000000000000888, 0.000000000000000000, 5.000000000000000000 ) ) ;
#22 = CARTESIAN_POINT ( 'NONE',  ( 3.500000000000000000, 4.286263797015736595E-16, 105.0000000000000142 ) ) ;
#23 = DIRECTION ( 'NONE',  ( -1.000000000000000000, 0.000000000000000000, 0.000000000000000000 ) ) ;
#24 = AXIS2_PLACEMENT_3D ( 'NONE', #220, #5, #6 ) ;
#25 = CARTESIAN_POINT ( 'NONE',  ( 0.000000000000000000, 0.000000000000000000, 105.0000000000000142 ) ) ;
#26 = CC_DESIGN_PERSON_AND_ORGANIZATION_ASSIGNMENT ( #252, #295, ( #276 ) ) ;
#27 = CIRCLE ( 'NONE', #214, 6.000000000000000888 ) ;
#28 = AXIS2_PLACEMENT_3D ( 'NONE', #286, #1, #77 ) ;
#29 = APPLICATION_PROTOCOL_DEFINITION ( 'international standard', 'config_control_design', 1994, #88 ) ;
#30 = DIRECTION ( 'NONE',  ( -0.000000000000000000, -0.000000000000000000, -1.000000000000000000 ) ) ;
#31 = APPLICATION_CONTEXT ( 'configuration controlled 3d designs of mechanical parts and assemblies' ) ;
#32 = DATE_AND_TIME ( #57, #146 ) ;
#33 = ORIENTED_EDGE ( 'NONE', *, *, #4, .F. ) ;
#34 = ORIENTED_EDGE ( 'NONE', *, *, #174, .T. ) ;
#35 = VERTEX_POINT ( 'NONE', #70 ) ;
#36 = ORIENTED_EDGE ( 'NONE', *, *, #53, .F. ) ;
#37 = CLOSED_SHELL ( 'NONE', ( #269, #261, #282, #190, #97, #218, #150, #226, #92 ) ) ;
#38 = PERSON_AND_ORGANIZATION ( #179, #40 ) ;
#39 = ORIENTED_EDGE ( 'NONE', *, *, #290, .F. ) ;
#40 = ORGANIZATION ( 'NEURÈENÝ', 'NEURÈENÝ', '' ) ;
#41 = APPROVAL_STATUS ( 'not_yet_approved' ) ;
#42 = LINE ( 'NONE', #284, #59 ) ;
#43 = COORDINATED_UNIVERSAL_TIME_OFFSET ( 1, 0, .AHEAD. ) ;
#44 = EDGE_CURVE ( 'NONE', #85, #64, #192, .T. ) ;
#45 = CARTESIAN_POINT ( 'NONE',  ( 0.000000000000000000, 0.000000000000000000, 5.199999999999996625 ) ) ;
#46 = PERSON_AND_ORGANIZATION ( #179, #40 ) ;
#47 = AXIS2_PLACEMENT_3D ( 'NONE', #115, #142, #235 ) ;
#48 = DIRECTION ( 'NONE',  ( 1.000000000000000000, 0.000000000000000000, 0.000000000000000000 ) ) ;
#49 = DIRECTION ( 'NONE',  ( 0.000000000000000000, 0.000000000000000000, 1.000000000000000000 ) ) ;
#50 = CARTESIAN_POINT ( 'NONE',  ( -6.000000000000000888, 0.000000000000000000, 5.000000000000000000 ) ) ;
#51 = EDGE_CURVE ( 'NONE', #105, #84, #27, .T. ) ;
#52 = DIRECTION ( 'NONE',  ( -0.000000000000000000, -0.000000000000000000, -1.000000000000000000 ) ) ;
#53 = EDGE_CURVE ( 'NONE', #156, #35, #98, .T. ) ;
#54 = AXIS2_PLACEMENT_3D ( 'NONE', #45, #281, #48 ) ;
#55 = CC_DESIGN_APPROVAL ( #169, ( #276 ) ) ;
#56 = DIRECTION ( 'NONE',  ( 1.000000000000000000, 0.000000000000000000, 0.000000000000000000 ) ) ;
#57 = CALENDAR_DATE ( 2022, 7, 7 ) ;
#58 = ORIENTED_EDGE ( 'NONE', *, *, #62, .T. ) ;
#59 = VECTOR ( 'NONE', #262, 1000.000000000000000 ) ;
#60 = ORIENTED_EDGE ( 'NONE', *, *, #204, .F. ) ;
#61 = ORIENTED_EDGE ( 'NONE', *, *, #204, .T. ) ;
#62 = EDGE_CURVE ( 'NONE', #131, #85, #91, .T. ) ;
#63 = PERSON_AND_ORGANIZATION_ROLE ( 'creator' ) ;
#64 = VERTEX_POINT ( 'NONE', #302 ) ;
#65 = PRODUCT_RELATED_PRODUCT_CATEGORY ( 'detail', '', ( #177 ) ) ;
#66 = ORIENTED_EDGE ( 'NONE', *, *, #104, .T. ) ;
#67 = LOCAL_TIME ( 12, 8, 6.000000000000000000, #82 ) ;
#68 = CALENDAR_DATE ( 2022, 7, 7 ) ;
#69 = DIRECTION ( 'NONE',  ( 0.000000000000000000, 0.000000000000000000, 1.000000000000000000 ) ) ;
#70 = CARTESIAN_POINT ( 'NONE',  ( -3.700000000000000178, 4.531193156845206201E-16, 4.999999999999998224 ) ) ;
#71 = CIRCLE ( 'NONE', #73, 3.700000000000000178 ) ;
#72 = CARTESIAN_POINT ( 'NONE',  ( 0.000000000000000000, 0.000000000000000000, 5.000000000000000000 ) ) ;
#73 = AXIS2_PLACEMENT_3D ( 'NONE', #283, #256, #231 ) ;
#74 = CARTESIAN_POINT ( 'NONE',  ( 0.000000000000000000, 0.000000000000000000, 105.0000000000000142 ) ) ;
#75 = CC_DESIGN_DATE_AND_TIME_ASSIGNMENT ( #106, #111, ( #181 ) ) ;
#76 = PERSON_AND_ORGANIZATION ( #179, #40 ) ;
#77 = DIRECTION ( 'NONE',  ( 1.000000000000000000, 0.000000000000000000, 0.000000000000000000 ) ) ;
#78 = CIRCLE ( 'NONE', #248, 6.000000000000000888 ) ;
#79 = CARTESIAN_POINT ( 'NONE',  ( 0.000000000000000000, 0.000000000000000000, 0.000000000000000000 ) ) ;
#80 = FACE_OUTER_BOUND ( 'NONE', #133, .T. ) ;
#81 = AXIS2_PLACEMENT_3D ( 'NONE', #195, #30, #173 ) ;
#82 = COORDINATED_UNIVERSAL_TIME_OFFSET ( 1, 0, .AHEAD. ) ;
#83 = EDGE_LOOP ( 'NONE', ( #158, #272 ) ) ;
#84 = VERTEX_POINT ( 'NONE', #233 ) ;
#85 = VERTEX_POINT ( 'NONE', #258 ) ;
#86 = SECURITY_CLASSIFICATION_LEVEL ( 'unclassified' ) ;
#87 = ORIENTED_EDGE ( 'NONE', *, *, #198, .T. ) ;
#88 = APPLICATION_CONTEXT ( 'configuration controlled 3d designs of mechanical parts and assemblies' ) ;
#89 = VECTOR ( 'NONE', #138, 1000.000000000000000 ) ;
#90 = PERSON_AND_ORGANIZATION_ROLE ( 'classification_officer' ) ;
#91 = LINE ( 'NONE', #144, #2 ) ;
#92 = ADVANCED_FACE ( 'NONE', ( #259 ), #253, .F. ) ;
#93 = DIRECTION ( 'NONE',  ( 1.000000000000000000, 0.000000000000000000, 0.000000000000000000 ) ) ;
#94 = CARTESIAN_POINT ( 'NONE',  ( 0.000000000000000000, 0.000000000000000000, 105.0000000000000142 ) ) ;
#95 = FACE_OUTER_BOUND ( 'NONE', #108, .T. ) ;
#96 = DIRECTION ( 'NONE',  ( 1.000000000000000000, 0.000000000000000000, -0.000000000000000000 ) ) ;
#97 = ADVANCED_FACE ( 'NONE', ( #118, #208 ), #285, .T. ) ;
#98 = CIRCLE ( 'NONE', #153, 0.2000000000000000944 ) ;
#99 = CYLINDRICAL_SURFACE ( 'NONE', #81, 6.000000000000000888 ) ;
#100 =( GEOMETRIC_REPRESENTATION_CONTEXT ( 3 ) GLOBAL_UNCERTAINTY_ASSIGNED_CONTEXT ( ( #155 ) ) GLOBAL_UNIT_ASSIGNED_CONTEXT ( ( #121, #3, #265 ) ) REPRESENTATION_CONTEXT ( 'NONE', 'WORKASPACE' ) );
#101 = CARTESIAN_POINT ( 'NONE',  ( 0.000000000000000000, 0.000000000000000000, 5.000000000000000000 ) ) ;
#102 = EDGE_LOOP ( 'NONE', ( #39, #87, #154, #270 ) ) ;
#103 = EDGE_LOOP ( 'NONE', ( #36, #33, #224, #128 ) ) ;
#104 = EDGE_CURVE ( 'NONE', #225, #131, #116, .T. ) ;
#105 = VERTEX_POINT ( 'NONE', #21 ) ;
#106 = DATE_AND_TIME ( #68, #67 ) ;
#107 = AXIS2_PLACEMENT_3D ( 'NONE', #193, #52, #216 ) ;
#108 = EDGE_LOOP ( 'NONE', ( #178, #292, #15, #275 ) ) ;
#109 = COORDINATED_UNIVERSAL_TIME_OFFSET ( 1, 0, .AHEAD. ) ;
#110 = VERTEX_POINT ( 'NONE', #215 ) ;
#111 = DATE_TIME_ROLE ( 'creation_date' ) ;
#112 = DIRECTION ( 'NONE',  ( 1.000000000000000000, 0.000000000000000000, 0.000000000000000000 ) ) ;
#113 = DIRECTION ( 'NONE',  ( 0.000000000000000000, 0.000000000000000000, -1.000000000000000000 ) ) ;
#114 = LINE ( 'NONE', #50, #89 ) ;
#115 = CARTESIAN_POINT ( 'NONE',  ( 0.000000000000000000, 0.000000000000000000, 105.0000000000000142 ) ) ;
#116 = CIRCLE ( 'NONE', #47, 3.500000000000000000 ) ;
#117 = AXIS2_PLACEMENT_3D ( 'NONE', #189, #161, #96 ) ;
#118 = FACE_BOUND ( 'NONE', #251, .T. ) ;
#119 = CIRCLE ( 'NONE', #291, 6.000000000000000888 ) ;
#120 = DIRECTION ( 'NONE',  ( 1.000000000000000000, 0.000000000000000000, 0.000000000000000000 ) ) ;
#121 =( LENGTH_UNIT ( ) NAMED_UNIT ( * ) SI_UNIT ( .MILLI., .METRE. ) );
#122 = CIRCLE ( 'NONE', #293, 6.000000000000000888 ) ;
#123 = CARTESIAN_POINT ( 'NONE',  ( -3.500000000000000000, 0.000000000000000000, 105.0000000000000142 ) ) ;
#124 = AXIS2_PLACEMENT_3D ( 'NONE', #79, #151, #217 ) ;
#125 = CC_DESIGN_PERSON_AND_ORGANIZATION_ASSIGNMENT ( #297, #63, ( #181 ) ) ;
#126 = CARTESIAN_POINT ( 'NONE',  ( 0.000000000000000000, 0.000000000000000000, 5.000000000000000000 ) ) ;
#127 = ORIENTED_EDGE ( 'NONE', *, *, #185, .T. ) ;
#128 = ORIENTED_EDGE ( 'NONE', *, *, #250, .F. ) ;
#129 = EDGE_CURVE ( 'NONE', #105, #110, #114, .T. ) ;
#130 = VERTEX_POINT ( 'NONE', #212 ) ;
#131 = VERTEX_POINT ( 'NONE', #22 ) ;
#132 = VECTOR ( 'NONE', #143, 1000.000000000000000 ) ;
#133 = EDGE_LOOP ( 'NONE', ( #66, #61 ) ) ;
#134 = PERSON_AND_ORGANIZATION ( #179, #40 ) ;
#135 = EDGE_CURVE ( 'NONE', #110, #130, #122, .T. ) ;
#136 = DIRECTION ( 'NONE',  ( 1.224646799147353207E-16, 1.000000000000000000, -0.000000000000000000 ) ) ;
#137 = APPROVAL_DATE_TIME ( #12, #268 ) ;
#138 = DIRECTION ( 'NONE',  ( -0.000000000000000000, -0.000000000000000000, -1.000000000000000000 ) ) ;
#139 = DATE_TIME_ROLE ( 'classification_date' ) ;
#140 = ADVANCED_BREP_SHAPE_REPRESENTATION ( '498c', ( #10, #24 ), #100 ) ;
#141 = AXIS2_PLACEMENT_3D ( 'NONE', #101, #148, #120 ) ;
#142 = DIRECTION ( 'NONE',  ( 0.000000000000000000, 0.000000000000000000, 1.000000000000000000 ) ) ;
#143 = DIRECTION ( 'NONE',  ( -0.000000000000000000, -0.000000000000000000, -1.000000000000000000 ) ) ;
#144 = CARTESIAN_POINT ( 'NONE',  ( 3.500000000000000000, 4.286263797015736595E-16, 105.0000000000000142 ) ) ;
#145 = PLANE ( 'NONE',  #124 ) ;
#146 = LOCAL_TIME ( 12, 8, 6.000000000000000000, #20 ) ;
#147 = DIRECTION ( 'NONE',  ( 0.000000000000000000, 0.000000000000000000, 1.000000000000000000 ) ) ;
#148 = DIRECTION ( 'NONE',  ( -0.000000000000000000, -0.000000000000000000, -1.000000000000000000 ) ) ;
#149 = LOCAL_TIME ( 12, 8, 6.000000000000000000, #203 ) ;
#150 = ADVANCED_FACE ( 'NONE', ( #163 ), #303, .T. ) ;
#151 = DIRECTION ( 'NONE',  ( 0.000000000000000000, 0.000000000000000000, 1.000000000000000000 ) ) ;
#152 = APPROVAL_DATE_TIME ( #278, #169 ) ;
#153 = AXIS2_PLACEMENT_3D ( 'NONE', #19, #136, #166 ) ;
#154 = ORIENTED_EDGE ( 'NONE', *, *, #277, .T. ) ;
#155 = UNCERTAINTY_MEASURE_WITH_UNIT (LENGTH_MEASURE( 1.000000000000000082E-05 ), #121, 'distance_accuracy_value', 'NONE');
#156 = VERTEX_POINT ( 'NONE', #188 ) ;
#157 = APPROVAL_ROLE ( '' ) ;
#158 = ORIENTED_EDGE ( 'NONE', *, *, #135, .F. ) ;
#159 = CC_DESIGN_DATE_AND_TIME_ASSIGNMENT ( #32, #139, ( #240 ) ) ;
#160 = AXIS2_PLACEMENT_3D ( 'NONE', #25, #287, #241 ) ;
#161 = DIRECTION ( 'NONE',  ( 0.000000000000000000, 0.000000000000000000, 1.000000000000000000 ) ) ;
#162 = APPROVAL_ROLE ( '' ) ;
#163 = FACE_OUTER_BOUND ( 'NONE', #206, .T. ) ;
#164 = DIRECTION ( 'NONE',  ( -0.000000000000000000, -0.000000000000000000, -1.000000000000000000 ) ) ;
#165 = LOCAL_TIME ( 12, 8, 6.000000000000000000, #109 ) ;
#166 = DIRECTION ( 'NONE',  ( -1.000000000000000000, 1.224646799147350742E-16, 0.000000000000000000 ) ) ;
#167 = DIRECTION ( 'NONE',  ( -0.000000000000000000, -0.000000000000000000, -1.000000000000000000 ) ) ;
#168 = PERSON_AND_ORGANIZATION_ROLE ( 'design_owner' ) ;
#169 = APPROVAL ( #257, 'NEURÈENÝ' ) ;
#170 = DIRECTION ( 'NONE',  ( 0.000000000000000000, 0.000000000000000000, 1.000000000000000000 ) ) ;
#171 = AXIS2_PLACEMENT_3D ( 'NONE', #74, #17, #112 ) ;
#172 = FACE_OUTER_BOUND ( 'NONE', #102, .T. ) ;
#173 = DIRECTION ( 'NONE',  ( -1.000000000000000000, 0.000000000000000000, 0.000000000000000000 ) ) ;
#174 = EDGE_CURVE ( 'NONE', #64, #35, #71, .T. ) ;
#175 = AXIS2_PLACEMENT_3D ( 'NONE', #194, #170, #221 ) ;
#176 = ORIENTED_EDGE ( 'NONE', *, *, #44, .F. ) ;
#177 = PRODUCT ( '498c', '498c', '', ( #266 ) ) ;
#178 = ORIENTED_EDGE ( 'NONE', *, *, #198, .F. ) ;
#179 = PERSON ( 'NEURÈENÝ', 'NEURÈENÝ', 'NEURÈENÝ', ('NEURÈENÝ'), ('NEURÈENÝ'), ('NEURÈENÝ') ) ;
#180 = ORIENTED_EDGE ( 'NONE', *, *, #53, .T. ) ;
#181 = PRODUCT_DEFINITION ( 'NEZNÁMÝ', '', #276, #199 ) ;
#182 = EDGE_LOOP ( 'NONE', ( #296, #180, #294, #176 ) ) ;
#183 = CC_DESIGN_SECURITY_CLASSIFICATION ( #240, ( #276 ) ) ;
#184 = DIRECTION ( 'NONE',  ( 1.000000000000000000, 0.000000000000000000, 0.000000000000000000 ) ) ;
#185 = EDGE_CURVE ( 'NONE', #225, #156, #260, .T. ) ;
#186 = DIRECTION ( 'NONE',  ( -1.000000000000000000, 0.000000000000000000, 0.000000000000000000 ) ) ;
#187 = CIRCLE ( 'NONE', #171, 3.500000000000000000 ) ;
#188 = CARTESIAN_POINT ( 'NONE',  ( -3.500000000000000000, 0.000000000000000000, 5.199999999999996625 ) ) ;
#189 = CARTESIAN_POINT ( 'NONE',  ( 0.000000000000000000, 0.000000000000000000, 5.000000000000000000 ) ) ;
#190 = ADVANCED_FACE ( 'NONE', ( #95 ), #213, .T. ) ;
#191 = FACE_OUTER_BOUND ( 'NONE', #182, .T. ) ;
#192 = CIRCLE ( 'NONE', #7, 0.1999999999999996503 ) ;
#193 = CARTESIAN_POINT ( 'NONE',  ( 0.000000000000000000, 0.000000000000000000, 105.0000000000000142 ) ) ;
#194 = CARTESIAN_POINT ( 'NONE',  ( 0.000000000000000000, 0.000000000000000000, 5.199999999999996625 ) ) ;
#195 = CARTESIAN_POINT ( 'NONE',  ( 0.000000000000000000, 0.000000000000000000, 5.000000000000000000 ) ) ;
#196 = APPROVAL_PERSON_ORGANIZATION ( #46, #222, #162 ) ;
#197 = PRODUCT_DEFINITION_SHAPE ( 'NONE', 'NONE',  #181 ) ;
#198 = EDGE_CURVE ( 'NONE', #84, #130, #42, .T. ) ;
#199 = DESIGN_CONTEXT ( 'detailed design', #31, 'design' ) ;
#200 = ORIENTED_EDGE ( 'NONE', *, *, #250, .T. ) ;
#201 = ORIENTED_EDGE ( 'NONE', *, *, #62, .F. ) ;
#202 = CIRCLE ( 'NONE', #141, 3.700000000000000178 ) ;
#203 = COORDINATED_UNIVERSAL_TIME_OFFSET ( 1, 0, .AHEAD. ) ;
#204 = EDGE_CURVE ( 'NONE', #131, #225, #187, .T. ) ;
#205 = APPLICATION_PROTOCOL_DEFINITION ( 'international standard', 'config_control_design', 1994, #31 ) ;
#206 = EDGE_LOOP ( 'NONE', ( #201, #249, #127, #227 ) ) ;
#207 = APPROVAL_ROLE ( '' ) ;
#208 = FACE_OUTER_BOUND ( 'NONE', #9, .T. ) ;
#209 = PERSON_AND_ORGANIZATION_ROLE ( 'creator' ) ;
#210 = LOCAL_TIME ( 12, 8, 6.000000000000000000, #43 ) ;
#211 = CARTESIAN_POINT ( 'NONE',  ( 3.700000000000000178, 0.000000000000000000, 5.199999999999996625 ) ) ;
#212 = CARTESIAN_POINT ( 'NONE',  ( 6.000000000000000888, 7.347880794884120722E-16, 0.000000000000000000 ) ) ;
#213 = CYLINDRICAL_SURFACE ( 'NONE', #243, 6.000000000000000888 ) ;
#214 = AXIS2_PLACEMENT_3D ( 'NONE', #72, #69, #93 ) ;
#215 = CARTESIAN_POINT ( 'NONE',  ( -6.000000000000000888, 0.000000000000000000, 0.000000000000000000 ) ) ;
#216 = DIRECTION ( 'NONE',  ( -1.000000000000000000, 0.000000000000000000, 0.000000000000000000 ) ) ;
#217 = DIRECTION ( 'NONE',  ( 1.000000000000000000, 0.000000000000000000, -0.000000000000000000 ) ) ;
#218 = ADVANCED_FACE ( 'NONE', ( #288 ), #145, .F. ) ;
#219 = CARTESIAN_POINT ( 'NONE',  ( 0.000000000000000000, 0.000000000000000000, 0.000000000000000000 ) ) ;
#220 = CARTESIAN_POINT ( 'NONE',  ( 0.000000000000000000, 0.000000000000000000, 0.000000000000000000 ) ) ;
#221 = DIRECTION ( 'NONE',  ( 1.000000000000000000, 0.000000000000000000, 0.000000000000000000 ) ) ;
#222 = APPROVAL ( #245, 'NEURÈENÝ' ) ;
#223 = CC_DESIGN_PERSON_AND_ORGANIZATION_ASSIGNMENT ( #38, #90, ( #240 ) ) ;
#224 = ORIENTED_EDGE ( 'NONE', *, *, #44, .T. ) ;
#225 = VERTEX_POINT ( 'NONE', #123 ) ;
#226 = ADVANCED_FACE ( 'NONE', ( #80 ), #306, .T. ) ;
#227 = ORIENTED_EDGE ( 'NONE', *, *, #244, .T. ) ;
#228 = CC_DESIGN_APPROVAL ( #222, ( #181 ) ) ;
#229 = ORIENTED_EDGE ( 'NONE', *, *, #4, .T. ) ;
#230 = DATE_AND_TIME ( #234, #149 ) ;
#231 = DIRECTION ( 'NONE',  ( 1.000000000000000000, 0.000000000000000000, 0.000000000000000000 ) ) ;
#232 = SHAPE_DEFINITION_REPRESENTATION ( #197, #140 ) ;
#233 = CARTESIAN_POINT ( 'NONE',  ( 6.000000000000000888, 7.347880794884120722E-16, 5.000000000000000000 ) ) ;
#234 = CALENDAR_DATE ( 2022, 7, 7 ) ;
#235 = DIRECTION ( 'NONE',  ( 1.000000000000000000, 0.000000000000000000, 0.000000000000000000 ) ) ;
#236 = DIRECTION ( 'NONE',  ( 0.000000000000000000, -1.000000000000000000, 0.000000000000000000 ) ) ;
#237 = CC_DESIGN_PERSON_AND_ORGANIZATION_ASSIGNMENT ( #76, #168, ( #177 ) ) ;
#238 = DIRECTION ( 'NONE',  ( -0.000000000000000000, -0.000000000000000000, -1.000000000000000000 ) ) ;
#239 = AXIS2_PLACEMENT_3D ( 'NONE', #298, #246, #279 ) ;
#240 = SECURITY_CLASSIFICATION ( '', '', #86 ) ;
#241 = DIRECTION ( 'NONE',  ( 1.000000000000000000, 0.000000000000000000, -0.000000000000000000 ) ) ;
#242 = CYLINDRICAL_SURFACE ( 'NONE', #107, 3.500000000000000000 ) ;
#243 = AXIS2_PLACEMENT_3D ( 'NONE', #304, #238, #23 ) ;
#244 = EDGE_CURVE ( 'NONE', #156, #85, #300, .T. ) ;
#245 = APPROVAL_STATUS ( 'not_yet_approved' ) ;
#246 = DIRECTION ( 'NONE',  ( 0.000000000000000000, 0.000000000000000000, 1.000000000000000000 ) ) ;
#247 = EDGE_LOOP ( 'NONE', ( #60, #58, #229, #254 ) ) ;
#248 = AXIS2_PLACEMENT_3D ( 'NONE', #126, #289, #56 ) ;
#249 = ORIENTED_EDGE ( 'NONE', *, *, #104, .F. ) ;
#250 = EDGE_CURVE ( 'NONE', #35, #64, #202, .T. ) ;
#251 = EDGE_LOOP ( 'NONE', ( #34, #200 ) ) ;
#252 = PERSON_AND_ORGANIZATION ( #179, #40 ) ;
#253 = TOROIDAL_SURFACE ( 'NONE', #54, 3.700000000000000178, 0.2000000000000000111 ) ;
#254 = ORIENTED_EDGE ( 'NONE', *, *, #185, .F. ) ;
#255 = TOROIDAL_SURFACE ( 'NONE', #28, 3.700000000000000178, 0.2000000000000000111 ) ;
#256 = DIRECTION ( 'NONE',  ( -0.000000000000000000, -0.000000000000000000, -1.000000000000000000 ) ) ;
#257 = APPROVAL_STATUS ( 'not_yet_approved' ) ;
#258 = CARTESIAN_POINT ( 'NONE',  ( 3.500000000000000000, 4.286263797015736595E-16, 5.199999999999996625 ) ) ;
#259 = FACE_OUTER_BOUND ( 'NONE', #103, .T. ) ;
#260 = LINE ( 'NONE', #305, #132 ) ;
#261 = ADVANCED_FACE ( 'NONE', ( #263 ), #242, .T. ) ;
#262 = DIRECTION ( 'NONE',  ( -0.000000000000000000, -0.000000000000000000, -1.000000000000000000 ) ) ;
#263 = FACE_OUTER_BOUND ( 'NONE', #247, .T. ) ;
#264 = DIRECTION ( 'NONE',  ( 1.000000000000000000, 0.000000000000000000, 0.000000000000000000 ) ) ;
#265 =( NAMED_UNIT ( * ) SI_UNIT ( $, .STERADIAN. ) SOLID_ANGLE_UNIT ( ) );
#266 = MECHANICAL_CONTEXT ( 'NONE', #88, 'mechanical' ) ;
#267 = AXIS2_PLACEMENT_3D ( 'NONE', #94, #167, #186 ) ;
#268 = APPROVAL ( #41, 'NEURÈENÝ' ) ;
#269 = ADVANCED_FACE ( 'NONE', ( #191 ), #255, .F. ) ;
#270 = ORIENTED_EDGE ( 'NONE', *, *, #129, .F. ) ;
#271 = APPROVAL_PERSON_ORGANIZATION ( #301, #268, #207 ) ;
#272 = ORIENTED_EDGE ( 'NONE', *, *, #277, .F. ) ;
#273 = CALENDAR_DATE ( 2022, 7, 7 ) ;
#274 = ORIENTED_EDGE ( 'NONE', *, *, #290, .T. ) ;
#275 = ORIENTED_EDGE ( 'NONE', *, *, #135, .T. ) ;
#276 = PRODUCT_DEFINITION_FORMATION_WITH_SPECIFIED_SOURCE ( 'LIBOVOLNÝ', '', #177, .NOT_KNOWN. ) ;
#277 = EDGE_CURVE ( 'NONE', #130, #110, #119, .T. ) ;
#278 = DATE_AND_TIME ( #273, #165 ) ;
#279 = DIRECTION ( 'NONE',  ( 1.000000000000000000, 0.000000000000000000, 0.000000000000000000 ) ) ;
#280 = PERSON_AND_ORGANIZATION ( #179, #40 ) ;
#281 = DIRECTION ( 'NONE',  ( 0.000000000000000000, 0.000000000000000000, 1.000000000000000000 ) ) ;
#282 = ADVANCED_FACE ( 'NONE', ( #172 ), #99, .T. ) ;
#283 = CARTESIAN_POINT ( 'NONE',  ( 0.000000000000000000, 0.000000000000000000, 5.000000000000000000 ) ) ;
#284 = CARTESIAN_POINT ( 'NONE',  ( 6.000000000000000888, 7.347880794884120722E-16, 5.000000000000000000 ) ) ;
#285 = PLANE ( 'NONE',  #117 ) ;
#286 = CARTESIAN_POINT ( 'NONE',  ( 0.000000000000000000, 0.000000000000000000, 5.199999999999996625 ) ) ;
#287 = DIRECTION ( 'NONE',  ( 0.000000000000000000, 0.000000000000000000, 1.000000000000000000 ) ) ;
#288 = FACE_OUTER_BOUND ( 'NONE', #83, .T. ) ;
#289 = DIRECTION ( 'NONE',  ( 0.000000000000000000, 0.000000000000000000, 1.000000000000000000 ) ) ;
#290 = EDGE_CURVE ( 'NONE', #84, #105, #78, .T. ) ;
#291 = AXIS2_PLACEMENT_3D ( 'NONE', #219, #147, #264 ) ;
#292 = ORIENTED_EDGE ( 'NONE', *, *, #51, .F. ) ;
#293 = AXIS2_PLACEMENT_3D ( 'NONE', #299, #49, #184 ) ;
#294 = ORIENTED_EDGE ( 'NONE', *, *, #174, .F. ) ;
#295 = PERSON_AND_ORGANIZATION_ROLE ( 'design_supplier' ) ;
#296 = ORIENTED_EDGE ( 'NONE', *, *, #244, .F. ) ;
#297 = PERSON_AND_ORGANIZATION ( #179, #40 ) ;
#298 = CARTESIAN_POINT ( 'NONE',  ( 0.000000000000000000, 0.000000000000000000, 5.199999999999996625 ) ) ;
#299 = CARTESIAN_POINT ( 'NONE',  ( 0.000000000000000000, 0.000000000000000000, 0.000000000000000000 ) ) ;
#300 = CIRCLE ( 'NONE', #175, 3.500000000000000000 ) ;
#301 = PERSON_AND_ORGANIZATION ( #179, #40 ) ;
#302 = CARTESIAN_POINT ( 'NONE',  ( 3.700000000000000178, 0.000000000000000000, 4.999999999999998224 ) ) ;
#303 = CYLINDRICAL_SURFACE ( 'NONE', #267, 3.500000000000000000 ) ;
#304 = CARTESIAN_POINT ( 'NONE',  ( 0.000000000000000000, 0.000000000000000000, 5.000000000000000000 ) ) ;
#305 = CARTESIAN_POINT ( 'NONE',  ( -3.500000000000000000, 0.000000000000000000, 105.0000000000000142 ) ) ;
#306 = PLANE ( 'NONE',  #160 ) ;
#307 = CC_DESIGN_PERSON_AND_ORGANIZATION_ASSIGNMENT ( #280, #209, ( #276 ) ) ;
ENDSEC;
END-ISO-10303-21;
