ISO-10303-21;
HEADER;
FILE_DESCRIPTION (( 'STEP AP203' ),
    '1' );
FILE_NAME ('c44f.STEP',
    '2022-07-07T09:28:54',
    ( '' ),
    ( '' ),
    'SwSTEP 2.0',
    'SolidWorks 2019',
    '' );
FILE_SCHEMA (( 'CONFIG_CONTROL_DESIGN' ));
ENDSEC;

DATA;
#1 = AXIS2_PLACEMENT_3D ( 'NONE', #97, #68, #117 ) ;
#2 = CARTESIAN_POINT ( 'NONE',  ( 0.000000000000000000, 0.000000000000000000, 810.0000000000000000 ) ) ;
#3 = AXIS2_PLACEMENT_3D ( 'NONE', #207, #297, #254 ) ;
#4 = ORIENTED_EDGE ( 'NONE', *, *, #90, .T. ) ;
#5 = CARTESIAN_POINT ( 'NONE',  ( 0.000000000000000000, 0.000000000000000000, 10.00000000000000000 ) ) ;
#6 = ORIENTED_EDGE ( 'NONE', *, *, #215, .F. ) ;
#7 = FACE_OUTER_BOUND ( 'NONE', #43, .T. ) ;
#8 = CARTESIAN_POINT ( 'NONE',  ( -16.00000000000000000, 0.000000000000000000, 10.19999999999998685 ) ) ;
#9 = DIRECTION ( 'NONE',  ( 1.000000000000000000, 0.000000000000000000, 0.000000000000000000 ) ) ;
#10 = LOCAL_TIME ( 11, 28, 54.00000000000000000, #183 ) ;
#11 = ORIENTED_EDGE ( 'NONE', *, *, #81, .T. ) ;
#12 = DIRECTION ( 'NONE',  ( 1.000000000000000000, 0.000000000000000000, 0.000000000000000000 ) ) ;
#13 = PERSON_AND_ORGANIZATION ( #22, #75 ) ;
#14 = DIRECTION ( 'NONE',  ( 0.000000000000000000, 0.000000000000000000, 1.000000000000000000 ) ) ;
#15 = APPROVAL_STATUS ( 'not_yet_approved' ) ;
#16 = CC_DESIGN_PERSON_AND_ORGANIZATION_ASSIGNMENT ( #209, #206, ( #166 ) ) ;
#17 = DIRECTION ( 'NONE',  ( 0.000000000000000000, 0.000000000000000000, 1.000000000000000000 ) ) ;
#18 = APPROVAL_DATE_TIME ( #67, #46 ) ;
#19 = AXIS2_PLACEMENT_3D ( 'NONE', #124, #50, #128 ) ;
#20 = CARTESIAN_POINT ( 'NONE',  ( -20.00000000000000000, 0.000000000000000000, 10.00000000000000000 ) ) ;
#21 = VERTEX_POINT ( 'NONE', #141 ) ;
#22 = PERSON ( 'NEURÈENÝ', 'NEURÈENÝ', 'NEURÈENÝ', ('NEURÈENÝ'), ('NEURÈENÝ'), ('NEURÈENÝ') ) ;
#23 = CARTESIAN_POINT ( 'NONE',  ( -16.00000000000000000, 0.000000000000000000, 810.0000000000000000 ) ) ;
#24 = AXIS2_PLACEMENT_3D ( 'NONE', #172, #290, #76 ) ;
#25 = TOROIDAL_SURFACE ( 'NONE', #19, 16.19999999999999929, 0.2000000000000000111 ) ;
#26 = CC_DESIGN_PERSON_AND_ORGANIZATION_ASSIGNMENT ( #59, #157, ( #54 ) ) ;
#27 = DIRECTION ( 'NONE',  ( 1.000000000000000000, 0.000000000000000000, 0.000000000000000000 ) ) ;
#28 = ORIENTED_EDGE ( 'NONE', *, *, #113, .F. ) ;
#29 = DIRECTION ( 'NONE',  ( 0.000000000000000000, 0.000000000000000000, 1.000000000000000000 ) ) ;
#30 = AXIS2_PLACEMENT_3D ( 'NONE', #61, #14, #36 ) ;
#31 = CARTESIAN_POINT ( 'NONE',  ( 0.000000000000000000, 0.000000000000000000, 10.00000000000000000 ) ) ;
#32 = CARTESIAN_POINT ( 'NONE',  ( 0.000000000000000000, 0.000000000000000000, 810.0000000000000000 ) ) ;
#33 = AXIS2_PLACEMENT_3D ( 'NONE', #127, #49, #201 ) ;
#34 = EDGE_LOOP ( 'NONE', ( #306, #185 ) ) ;
#35 = APPROVAL_ROLE ( '' ) ;
#36 = DIRECTION ( 'NONE',  ( 1.000000000000000000, 0.000000000000000000, 0.000000000000000000 ) ) ;
#37 = PRODUCT_DEFINITION_FORMATION_WITH_SPECIFIED_SOURCE ( 'LIBOVOLNÝ', '', #228, .NOT_KNOWN. ) ;
#38 = DATE_AND_TIME ( #178, #190 ) ;
#39 = AXIS2_PLACEMENT_3D ( 'NONE', #232, #285, #9 ) ;
#40 = DIRECTION ( 'NONE',  ( 0.000000000000000000, 0.000000000000000000, 1.000000000000000000 ) ) ;
#41 = CARTESIAN_POINT ( 'NONE',  ( -20.00000000000000000, 0.000000000000000000, 0.000000000000000000 ) ) ;
#42 = DIRECTION ( 'NONE',  ( -1.000000000000000000, 0.000000000000000000, 0.000000000000000000 ) ) ;
#43 = EDGE_LOOP ( 'NONE', ( #200, #86, #58, #60 ) ) ;
#44 = EDGE_CURVE ( 'NONE', #242, #260, #238, .T. ) ;
#45 = AXIS2_PLACEMENT_3D ( 'NONE', #87, #205, #177 ) ;
#46 = APPROVAL ( #15, 'NEURÈENÝ' ) ;
#47 = CARTESIAN_POINT ( 'NONE',  ( 0.000000000000000000, 0.000000000000000000, 0.000000000000000000 ) ) ;
#48 = EDGE_CURVE ( 'NONE', #150, #250, #104, .T. ) ;
#49 = DIRECTION ( 'NONE',  ( -0.000000000000000000, -0.000000000000000000, -1.000000000000000000 ) ) ;
#50 = DIRECTION ( 'NONE',  ( 0.000000000000000000, 0.000000000000000000, 1.000000000000000000 ) ) ;
#51 = ADVANCED_FACE ( 'NONE', ( #203, #106 ), #295, .T. ) ;
#52 = ORIENTED_EDGE ( 'NONE', *, *, #147, .T. ) ;
#53 = DIRECTION ( 'NONE',  ( 1.000000000000000000, 0.000000000000000000, -0.000000000000000000 ) ) ;
#54 = SECURITY_CLASSIFICATION ( '', '', #302 ) ;
#55 = CIRCLE ( 'NONE', #280, 0.2000000000000005107 ) ;
#56 = ORIENTED_EDGE ( 'NONE', *, *, #198, .F. ) ;
#57 = CALENDAR_DATE ( 2022, 7, 7 ) ;
#58 = ORIENTED_EDGE ( 'NONE', *, *, #125, .T. ) ;
#59 = PERSON_AND_ORGANIZATION ( #22, #75 ) ;
#60 = ORIENTED_EDGE ( 'NONE', *, *, #165, .F. ) ;
#61 = CARTESIAN_POINT ( 'NONE',  ( 0.000000000000000000, 0.000000000000000000, 10.19999999999998685 ) ) ;
#62 = CC_DESIGN_SECURITY_CLASSIFICATION ( #54, ( #37 ) ) ;
#63 = CALENDAR_DATE ( 2022, 7, 7 ) ;
#64 = VECTOR ( 'NONE', #305, 1000.000000000000000 ) ;
#65 = CARTESIAN_POINT ( 'NONE',  ( 0.000000000000000000, 0.000000000000000000, 10.19999999999998685 ) ) ;
#66 = CIRCLE ( 'NONE', #272, 20.00000000000000000 ) ;
#67 = DATE_AND_TIME ( #208, #279 ) ;
#68 = DIRECTION ( 'NONE',  ( 0.000000000000000000, 0.000000000000000000, 1.000000000000000000 ) ) ;
#69 = ORIENTED_EDGE ( 'NONE', *, *, #165, .T. ) ;
#70 = CC_DESIGN_PERSON_AND_ORGANIZATION_ASSIGNMENT ( #133, #275, ( #37 ) ) ;
#71 = ORIENTED_EDGE ( 'NONE', *, *, #113, .T. ) ;
#72 = ADVANCED_FACE ( 'NONE', ( #264 ), #291, .T. ) ;
#73 = CIRCLE ( 'NONE', #239, 20.00000000000000000 ) ;
#74 = ADVANCED_FACE ( 'NONE', ( #7 ), #78, .T. ) ;
#75 = ORGANIZATION ( 'NEURÈENÝ', 'NEURÈENÝ', '' ) ;
#76 = DIRECTION ( 'NONE',  ( 1.000000000000000000, 0.000000000000000000, 0.000000000000000000 ) ) ;
#77 = CIRCLE ( 'NONE', #235, 20.00000000000000000 ) ;
#78 = CYLINDRICAL_SURFACE ( 'NONE', #123, 20.00000000000000000 ) ;
#79 = DIRECTION ( 'NONE',  ( 0.000000000000000000, 0.000000000000000000, 1.000000000000000000 ) ) ;
#80 = DIRECTION ( 'NONE',  ( 1.000000000000000000, 0.000000000000000000, 0.000000000000000000 ) ) ;
#81 = EDGE_CURVE ( 'NONE', #304, #188, #66, .T. ) ;
#82 = EDGE_LOOP ( 'NONE', ( #139, #107, #83, #52 ) ) ;
#83 = ORIENTED_EDGE ( 'NONE', *, *, #44, .T. ) ;
#84 = LOCAL_TIME ( 11, 28, 54.00000000000000000, #180 ) ;
#85 = PERSON_AND_ORGANIZATION ( #22, #75 ) ;
#86 = ORIENTED_EDGE ( 'NONE', *, *, #182, .T. ) ;
#87 = CARTESIAN_POINT ( 'NONE',  ( 0.000000000000000000, 0.000000000000000000, 10.00000000000000000 ) ) ;
#88 = APPROVAL_STATUS ( 'not_yet_approved' ) ;
#89 = DIRECTION ( 'NONE',  ( 1.000000000000000000, 0.000000000000000000, 0.000000000000000000 ) ) ;
#90 = EDGE_CURVE ( 'NONE', #204, #21, #283, .T. ) ;
#91 = CC_DESIGN_APPROVAL ( #293, ( #37 ) ) ;
#92 = APPROVAL_STATUS ( 'not_yet_approved' ) ;
#93 = CIRCLE ( 'NONE', #211, 16.00000000000000000 ) ;
#94 = CARTESIAN_POINT ( 'NONE',  ( 16.00000000000000000, 1.959434878635765131E-15, 810.0000000000000000 ) ) ;
#95 = EDGE_LOOP ( 'NONE', ( #6, #56, #71, #126 ) ) ;
#96 = DATE_AND_TIME ( #161, #10 ) ;
#97 = CARTESIAN_POINT ( 'NONE',  ( 0.000000000000000000, 0.000000000000000000, 10.19999999999998685 ) ) ;
#98 = ORIENTED_EDGE ( 'NONE', *, *, #102, .T. ) ;
#99 = ADVANCED_FACE ( 'NONE', ( #240 ), #25, .F. ) ;
#100 = TOROIDAL_SURFACE ( 'NONE', #30, 16.19999999999999929, 0.2000000000000000111 ) ;
#101 = UNCERTAINTY_MEASURE_WITH_UNIT (LENGTH_MEASURE( 1.000000000000000082E-05 ), #273, 'distance_accuracy_value', 'NONE');
#102 = EDGE_CURVE ( 'NONE', #242, #150, #269, .T. ) ;
#103 = AXIS2_PLACEMENT_3D ( 'NONE', #2, #79, #225 ) ;
#104 = LINE ( 'NONE', #224, #199 ) ;
#105 = DIRECTION ( 'NONE',  ( 1.000000000000000000, 0.000000000000000000, -0.000000000000000000 ) ) ;
#106 = FACE_OUTER_BOUND ( 'NONE', #229, .T. ) ;
#107 = ORIENTED_EDGE ( 'NONE', *, *, #102, .F. ) ;
#108 = DIRECTION ( 'NONE',  ( 0.000000000000000000, 0.000000000000000000, 1.000000000000000000 ) ) ;
#109 = LOCAL_TIME ( 11, 28, 54.00000000000000000, #298 ) ;
#110 = PERSON_AND_ORGANIZATION ( #22, #75 ) ;
#111 = CARTESIAN_POINT ( 'NONE',  ( 16.19999999999999929, 0.000000000000000000, 9.999999999999992895 ) ) ;
#112 = MECHANICAL_CONTEXT ( 'NONE', #115, 'mechanical' ) ;
#113 = EDGE_CURVE ( 'NONE', #250, #204, #55, .T. ) ;
#114 = PLANE ( 'NONE',  #167 ) ;
#115 = APPLICATION_CONTEXT ( 'configuration controlled 3d designs of mechanical parts and assemblies' ) ;
#116 = COORDINATED_UNIVERSAL_TIME_OFFSET ( 1, 0, .AHEAD. ) ;
#117 = DIRECTION ( 'NONE',  ( 1.000000000000000000, 0.000000000000000000, 0.000000000000000000 ) ) ;
#118 = APPROVAL_ROLE ( '' ) ;
#119 = CARTESIAN_POINT ( 'NONE',  ( 20.00000000000000000, 2.449293598294706513E-15, 10.00000000000000000 ) ) ;
#120 = ORIENTED_EDGE ( 'NONE', *, *, #198, .T. ) ;
#121 = DIRECTION ( 'NONE',  ( -0.000000000000000000, -0.000000000000000000, -1.000000000000000000 ) ) ;
#122 = AXIS2_PLACEMENT_3D ( 'NONE', #233, #137, #42 ) ;
#123 = AXIS2_PLACEMENT_3D ( 'NONE', #171, #243, #246 ) ;
#124 = CARTESIAN_POINT ( 'NONE',  ( 0.000000000000000000, 0.000000000000000000, 10.19999999999998685 ) ) ;
#125 = EDGE_CURVE ( 'NONE', #236, #158, #77, .T. ) ;
#126 = ORIENTED_EDGE ( 'NONE', *, *, #142, .F. ) ;
#127 = CARTESIAN_POINT ( 'NONE',  ( 0.000000000000000000, 0.000000000000000000, 810.0000000000000000 ) ) ;
#128 = DIRECTION ( 'NONE',  ( 1.000000000000000000, 0.000000000000000000, 0.000000000000000000 ) ) ;
#129 =( GEOMETRIC_REPRESENTATION_CONTEXT ( 3 ) GLOBAL_UNCERTAINTY_ASSIGNED_CONTEXT ( ( #101 ) ) GLOBAL_UNIT_ASSIGNED_CONTEXT ( ( #273, #288, #146 ) ) REPRESENTATION_CONTEXT ( 'NONE', 'WORKASPACE' ) );
#130 = ORIENTED_EDGE ( 'NONE', *, *, #215, .T. ) ;
#131 = DIRECTION ( 'NONE',  ( 0.000000000000000000, 0.000000000000000000, 1.000000000000000000 ) ) ;
#132 = ORIENTED_EDGE ( 'NONE', *, *, #307, .F. ) ;
#133 = PERSON_AND_ORGANIZATION ( #22, #75 ) ;
#134 = DATE_TIME_ROLE ( 'creation_date' ) ;
#135 = ADVANCED_FACE ( 'NONE', ( #244 ), #196, .F. ) ;
#136 = FACE_OUTER_BOUND ( 'NONE', #95, .T. ) ;
#137 = DIRECTION ( 'NONE',  ( -0.000000000000000000, -0.000000000000000000, -1.000000000000000000 ) ) ;
#138 = DIRECTION ( 'NONE',  ( -0.000000000000000000, -0.000000000000000000, -1.000000000000000000 ) ) ;
#139 = ORIENTED_EDGE ( 'NONE', *, *, #48, .F. ) ;
#140 = CIRCLE ( 'NONE', #24, 16.19999999999999929 ) ;
#141 = CARTESIAN_POINT ( 'NONE',  ( -16.19999999999999929, 1.983927814618711846E-15, 9.999999999999992895 ) ) ;
#142 = EDGE_CURVE ( 'NONE', #21, #204, #140, .T. ) ;
#143 = CIRCLE ( 'NONE', #3, 0.1999999999999987899 ) ;
#144 = APPROVAL_PERSON_ORGANIZATION ( #255, #193, #118 ) ;
#145 = CARTESIAN_POINT ( 'NONE',  ( 0.000000000000000000, 0.000000000000000000, 0.000000000000000000 ) ) ;
#146 =( NAMED_UNIT ( * ) SI_UNIT ( $, .STERADIAN. ) SOLID_ANGLE_UNIT ( ) );
#147 = EDGE_CURVE ( 'NONE', #260, #250, #152, .T. ) ;
#148 = ORIENTED_EDGE ( 'NONE', *, *, #147, .F. ) ;
#149 = CARTESIAN_POINT ( 'NONE',  ( 16.19999999999999929, 0.000000000000000000, 10.19999999999998685 ) ) ;
#150 = VERTEX_POINT ( 'NONE', #94 ) ;
#151 = CARTESIAN_POINT ( 'NONE',  ( 0.000000000000000000, 0.000000000000000000, 10.00000000000000000 ) ) ;
#152 = CIRCLE ( 'NONE', #1, 16.00000000000000000 ) ;
#153 = CC_DESIGN_PERSON_AND_ORGANIZATION_ASSIGNMENT ( #13, #231, ( #37 ) ) ;
#154 = APPLICATION_PROTOCOL_DEFINITION ( 'international standard', 'config_control_design', 1994, #115 ) ;
#155 = EDGE_LOOP ( 'NONE', ( #132, #173, #120, #217 ) ) ;
#156 = CYLINDRICAL_SURFACE ( 'NONE', #45, 20.00000000000000000 ) ;
#157 = PERSON_AND_ORGANIZATION_ROLE ( 'classification_officer' ) ;
#158 = VERTEX_POINT ( 'NONE', #41 ) ;
#159 = FACE_OUTER_BOUND ( 'NONE', #276, .T. ) ;
#160 = DATE_TIME_ROLE ( 'classification_date' ) ;
#161 = CALENDAR_DATE ( 2022, 7, 7 ) ;
#162 = DIRECTION ( 'NONE',  ( 0.000000000000000000, 0.000000000000000000, 1.000000000000000000 ) ) ;
#163 = ADVANCED_BREP_SHAPE_REPRESENTATION ( 'c44f', ( #257, #39 ), #129 ) ;
#164 = ORIENTED_EDGE ( 'NONE', *, *, #256, .T. ) ;
#165 = EDGE_CURVE ( 'NONE', #188, #158, #184, .T. ) ;
#166 = PRODUCT_DEFINITION ( 'NEZNÁMÝ', '', #37, #289 ) ;
#167 = AXIS2_PLACEMENT_3D ( 'NONE', #251, #40, #179 ) ;
#168 = AXIS2_PLACEMENT_3D ( 'NONE', #5, #131, #53 ) ;
#169 = DIRECTION ( 'NONE',  ( 0.000000000000000000, -1.000000000000000000, 0.000000000000000000 ) ) ;
#170 = CC_DESIGN_DATE_AND_TIME_ASSIGNMENT ( #234, #160, ( #54 ) ) ;
#171 = CARTESIAN_POINT ( 'NONE',  ( 0.000000000000000000, 0.000000000000000000, 10.00000000000000000 ) ) ;
#172 = CARTESIAN_POINT ( 'NONE',  ( 0.000000000000000000, 0.000000000000000000, 10.00000000000000000 ) ) ;
#173 = ORIENTED_EDGE ( 'NONE', *, *, #48, .T. ) ;
#174 = DIRECTION ( 'NONE',  ( -0.000000000000000000, -0.000000000000000000, -1.000000000000000000 ) ) ;
#175 = EDGE_LOOP ( 'NONE', ( #4, #216 ) ) ;
#176 = PRODUCT_DEFINITION_SHAPE ( 'NONE', 'NONE',  #166 ) ;
#177 = DIRECTION ( 'NONE',  ( -1.000000000000000000, 0.000000000000000000, 0.000000000000000000 ) ) ;
#178 = CALENDAR_DATE ( 2022, 7, 7 ) ;
#179 = DIRECTION ( 'NONE',  ( 1.000000000000000000, 0.000000000000000000, -0.000000000000000000 ) ) ;
#180 = COORDINATED_UNIVERSAL_TIME_OFFSET ( 1, 0, .AHEAD. ) ;
#181 = CARTESIAN_POINT ( 'NONE',  ( -20.00000000000000000, 0.000000000000000000, 10.00000000000000000 ) ) ;
#182 = EDGE_CURVE ( 'NONE', #304, #236, #214, .T. ) ;
#183 = COORDINATED_UNIVERSAL_TIME_OFFSET ( 1, 0, .AHEAD. ) ;
#184 = LINE ( 'NONE', #20, #245 ) ;
#185 = ORIENTED_EDGE ( 'NONE', *, *, #125, .F. ) ;
#186 = PERSON_AND_ORGANIZATION_ROLE ( 'design_owner' ) ;
#187 = EDGE_CURVE ( 'NONE', #188, #304, #73, .T. ) ;
#188 = VERTEX_POINT ( 'NONE', #181 ) ;
#189 = ADVANCED_FACE ( 'NONE', ( #284 ), #281, .T. ) ;
#190 = LOCAL_TIME ( 11, 28, 54.00000000000000000, #252 ) ;
#191 = CIRCLE ( 'NONE', #253, 16.00000000000000000 ) ;
#192 = CLOSED_SHELL ( 'NONE', ( #99, #189, #74, #219, #51, #135, #72, #220, #221 ) ) ;
#193 = APPROVAL ( #92, 'NEURÈENÝ' ) ;
#194 = CC_DESIGN_APPROVAL ( #193, ( #54 ) ) ;
#195 = AXIS2_PLACEMENT_3D ( 'NONE', #145, #292, #105 ) ;
#196 = PLANE ( 'NONE',  #195 ) ;
#197 = CARTESIAN_POINT ( 'NONE',  ( 0.000000000000000000, 0.000000000000000000, 0.000000000000000000 ) ) ;
#198 = EDGE_CURVE ( 'NONE', #250, #260, #191, .T. ) ;
#199 = VECTOR ( 'NONE', #174, 1000.000000000000000 ) ;
#200 = ORIENTED_EDGE ( 'NONE', *, *, #81, .F. ) ;
#201 = DIRECTION ( 'NONE',  ( -1.000000000000000000, 0.000000000000000000, 0.000000000000000000 ) ) ;
#202 = CARTESIAN_POINT ( 'NONE',  ( -16.00000000000000000, 0.000000000000000000, 810.0000000000000000 ) ) ;
#203 = FACE_BOUND ( 'NONE', #175, .T. ) ;
#204 = VERTEX_POINT ( 'NONE', #111 ) ;
#205 = DIRECTION ( 'NONE',  ( -0.000000000000000000, -0.000000000000000000, -1.000000000000000000 ) ) ;
#206 = PERSON_AND_ORGANIZATION_ROLE ( 'creator' ) ;
#207 = CARTESIAN_POINT ( 'NONE',  ( -16.19999999999999929, 1.983927814618711846E-15, 10.19999999999998685 ) ) ;
#208 = CALENDAR_DATE ( 2022, 7, 7 ) ;
#209 = PERSON_AND_ORGANIZATION ( #22, #75 ) ;
#210 = CARTESIAN_POINT ( 'NONE',  ( 0.000000000000000000, 0.000000000000000000, 10.00000000000000000 ) ) ;
#211 = AXIS2_PLACEMENT_3D ( 'NONE', #32, #296, #270 ) ;
#212 = ORIENTED_EDGE ( 'NONE', *, *, #90, .F. ) ;
#213 = APPROVAL_DATE_TIME ( #96, #193 ) ;
#214 = LINE ( 'NONE', #119, #64 ) ;
#215 = EDGE_CURVE ( 'NONE', #260, #21, #143, .T. ) ;
#216 = ORIENTED_EDGE ( 'NONE', *, *, #142, .T. ) ;
#217 = ORIENTED_EDGE ( 'NONE', *, *, #44, .F. ) ;
#218 = APPROVAL_PERSON_ORGANIZATION ( #282, #293, #35 ) ;
#219 = ADVANCED_FACE ( 'NONE', ( #274 ), #156, .T. ) ;
#220 = ADVANCED_FACE ( 'NONE', ( #159 ), #114, .T. ) ;
#221 = ADVANCED_FACE ( 'NONE', ( #136 ), #100, .F. ) ;
#222 = CIRCLE ( 'NONE', #303, 20.00000000000000000 ) ;
#223 = ORIENTED_EDGE ( 'NONE', *, *, #307, .T. ) ;
#224 = CARTESIAN_POINT ( 'NONE',  ( 16.00000000000000000, 1.959434878635765131E-15, 810.0000000000000000 ) ) ;
#225 = DIRECTION ( 'NONE',  ( 1.000000000000000000, 0.000000000000000000, 0.000000000000000000 ) ) ;
#226 = EDGE_LOOP ( 'NONE', ( #248, #286, #69, #164 ) ) ;
#227 = DIRECTION ( 'NONE',  ( -0.000000000000000000, -0.000000000000000000, -1.000000000000000000 ) ) ;
#228 = PRODUCT ( 'c44f', 'c44f', '', ( #112 ) ) ;
#229 = EDGE_LOOP ( 'NONE', ( #266, #11 ) ) ;
#230 = CARTESIAN_POINT ( 'NONE',  ( 16.00000000000000000, 1.959434878635765131E-15, 10.19999999999998685 ) ) ;
#231 = PERSON_AND_ORGANIZATION_ROLE ( 'creator' ) ;
#232 = CARTESIAN_POINT ( 'NONE',  ( 0.000000000000000000, 0.000000000000000000, 0.000000000000000000 ) ) ;
#233 = CARTESIAN_POINT ( 'NONE',  ( 0.000000000000000000, 0.000000000000000000, 810.0000000000000000 ) ) ;
#234 = DATE_AND_TIME ( #63, #84 ) ;
#235 = AXIS2_PLACEMENT_3D ( 'NONE', #47, #265, #294 ) ;
#236 = VERTEX_POINT ( 'NONE', #277 ) ;
#237 = VECTOR ( 'NONE', #121, 1000.000000000000000 ) ;
#238 = LINE ( 'NONE', #23, #237 ) ;
#239 = AXIS2_PLACEMENT_3D ( 'NONE', #210, #162, #89 ) ;
#240 = FACE_OUTER_BOUND ( 'NONE', #261, .T. ) ;
#241 = PRODUCT_RELATED_PRODUCT_CATEGORY ( 'detail', '', ( #228 ) ) ;
#242 = VERTEX_POINT ( 'NONE', #202 ) ;
#243 = DIRECTION ( 'NONE',  ( -0.000000000000000000, -0.000000000000000000, -1.000000000000000000 ) ) ;
#244 = FACE_OUTER_BOUND ( 'NONE', #34, .T. ) ;
#245 = VECTOR ( 'NONE', #138, 1000.000000000000000 ) ;
#246 = DIRECTION ( 'NONE',  ( -1.000000000000000000, 0.000000000000000000, 0.000000000000000000 ) ) ;
#247 = CARTESIAN_POINT ( 'NONE',  ( 20.00000000000000000, 2.449293598294706513E-15, 10.00000000000000000 ) ) ;
#248 = ORIENTED_EDGE ( 'NONE', *, *, #182, .F. ) ;
#249 = APPLICATION_PROTOCOL_DEFINITION ( 'international standard', 'config_control_design', 1994, #258 ) ;
#250 = VERTEX_POINT ( 'NONE', #230 ) ;
#251 = CARTESIAN_POINT ( 'NONE',  ( 0.000000000000000000, 0.000000000000000000, 810.0000000000000000 ) ) ;
#252 = COORDINATED_UNIVERSAL_TIME_OFFSET ( 1, 0, .AHEAD. ) ;
#253 = AXIS2_PLACEMENT_3D ( 'NONE', #65, #17, #12 ) ;
#254 = DIRECTION ( 'NONE',  ( -1.000000000000000000, 1.224646799147353947E-16, 0.000000000000000000 ) ) ;
#255 = PERSON_AND_ORGANIZATION ( #22, #75 ) ;
#256 = EDGE_CURVE ( 'NONE', #158, #236, #222, .T. ) ;
#257 = MANIFOLD_SOLID_BREP ( 'Zaoblit1', #192 ) ;
#258 = APPLICATION_CONTEXT ( 'configuration controlled 3d designs of mechanical parts and assemblies' ) ;
#259 = SHAPE_DEFINITION_REPRESENTATION ( #176, #163 ) ;
#260 = VERTEX_POINT ( 'NONE', #8 ) ;
#261 = EDGE_LOOP ( 'NONE', ( #148, #130, #212, #28 ) ) ;
#262 = CC_DESIGN_PERSON_AND_ORGANIZATION_ASSIGNMENT ( #110, #186, ( #228 ) ) ;
#263 = DIRECTION ( 'NONE',  ( 0.000000000000000000, 0.000000000000000000, -1.000000000000000000 ) ) ;
#264 = FACE_OUTER_BOUND ( 'NONE', #82, .T. ) ;
#265 = DIRECTION ( 'NONE',  ( 0.000000000000000000, 0.000000000000000000, 1.000000000000000000 ) ) ;
#266 = ORIENTED_EDGE ( 'NONE', *, *, #187, .T. ) ;
#267 = DIRECTION ( 'NONE',  ( 1.000000000000000000, 0.000000000000000000, 0.000000000000000000 ) ) ;
#268 = CC_DESIGN_APPROVAL ( #46, ( #166 ) ) ;
#269 = CIRCLE ( 'NONE', #103, 16.00000000000000000 ) ;
#270 = DIRECTION ( 'NONE',  ( 1.000000000000000000, 0.000000000000000000, 0.000000000000000000 ) ) ;
#271 = APPROVAL_ROLE ( '' ) ;
#272 = AXIS2_PLACEMENT_3D ( 'NONE', #31, #29, #267 ) ;
#273 =( LENGTH_UNIT ( ) NAMED_UNIT ( * ) SI_UNIT ( .MILLI., .METRE. ) );
#274 = FACE_OUTER_BOUND ( 'NONE', #226, .T. ) ;
#275 = PERSON_AND_ORGANIZATION_ROLE ( 'design_supplier' ) ;
#276 = EDGE_LOOP ( 'NONE', ( #98, #223 ) ) ;
#277 = CARTESIAN_POINT ( 'NONE',  ( 20.00000000000000000, 2.449293598294706513E-15, 0.000000000000000000 ) ) ;
#278 = APPROVAL_DATE_TIME ( #38, #293 ) ;
#279 = LOCAL_TIME ( 11, 28, 54.00000000000000000, #116 ) ;
#280 = AXIS2_PLACEMENT_3D ( 'NONE', #149, #169, #263 ) ;
#281 = CYLINDRICAL_SURFACE ( 'NONE', #122, 16.00000000000000000 ) ;
#282 = PERSON_AND_ORGANIZATION ( #22, #75 ) ;
#283 = CIRCLE ( 'NONE', #299, 16.19999999999999929 ) ;
#284 = FACE_OUTER_BOUND ( 'NONE', #155, .T. ) ;
#285 = DIRECTION ( 'NONE',  ( 0.000000000000000000, 0.000000000000000000, 1.000000000000000000 ) ) ;
#286 = ORIENTED_EDGE ( 'NONE', *, *, #187, .F. ) ;
#287 = APPROVAL_PERSON_ORGANIZATION ( #85, #46, #271 ) ;
#288 =( NAMED_UNIT ( * ) PLANE_ANGLE_UNIT ( ) SI_UNIT ( $, .RADIAN. ) );
#289 = DESIGN_CONTEXT ( 'detailed design', #258, 'design' ) ;
#290 = DIRECTION ( 'NONE',  ( -0.000000000000000000, -0.000000000000000000, -1.000000000000000000 ) ) ;
#291 = CYLINDRICAL_SURFACE ( 'NONE', #33, 16.00000000000000000 ) ;
#292 = DIRECTION ( 'NONE',  ( 0.000000000000000000, 0.000000000000000000, 1.000000000000000000 ) ) ;
#293 = APPROVAL ( #88, 'NEURÈENÝ' ) ;
#294 = DIRECTION ( 'NONE',  ( 1.000000000000000000, 0.000000000000000000, 0.000000000000000000 ) ) ;
#295 = PLANE ( 'NONE',  #168 ) ;
#296 = DIRECTION ( 'NONE',  ( 0.000000000000000000, 0.000000000000000000, 1.000000000000000000 ) ) ;
#297 = DIRECTION ( 'NONE',  ( 1.224646799147353207E-16, 1.000000000000000000, -0.000000000000000000 ) ) ;
#298 = COORDINATED_UNIVERSAL_TIME_OFFSET ( 1, 0, .AHEAD. ) ;
#299 = AXIS2_PLACEMENT_3D ( 'NONE', #151, #227, #27 ) ;
#300 = DATE_AND_TIME ( #57, #109 ) ;
#301 = CC_DESIGN_DATE_AND_TIME_ASSIGNMENT ( #300, #134, ( #166 ) ) ;
#302 = SECURITY_CLASSIFICATION_LEVEL ( 'unclassified' ) ;
#303 = AXIS2_PLACEMENT_3D ( 'NONE', #197, #108, #80 ) ;
#304 = VERTEX_POINT ( 'NONE', #247 ) ;
#305 = DIRECTION ( 'NONE',  ( -0.000000000000000000, -0.000000000000000000, -1.000000000000000000 ) ) ;
#306 = ORIENTED_EDGE ( 'NONE', *, *, #256, .F. ) ;
#307 = EDGE_CURVE ( 'NONE', #150, #242, #93, .T. ) ;
ENDSEC;
END-ISO-10303-21;
