ISO-10303-21;
HEADER;
FILE_DESCRIPTION (( 'STEP AP203' ),
    '1' );
FILE_NAME ('54af.STEP',
    '2022-07-07T10:16:12',
    ( '' ),
    ( '' ),
    'SwSTEP 2.0',
    'SolidWorks 2019',
    '' );
FILE_SCHEMA (( 'CONFIG_CONTROL_DESIGN' ));
ENDSEC;

DATA;
#1 = CARTESIAN_POINT ( 'NONE',  ( 2.949999999999999734, 0.000000000000000000, 3.199999999999994404 ) ) ;
#2 = CIRCLE ( 'NONE', #22, 5.000000000000000000 ) ;
#3 = DIRECTION ( 'NONE',  ( 1.000000000000000000, 0.000000000000000000, -0.000000000000000000 ) ) ;
#4 = FACE_OUTER_BOUND ( 'NONE', #78, .T. ) ;
#5 = EDGE_CURVE ( 'NONE', #45, #15, #290, .T. ) ;
#6 = CARTESIAN_POINT ( 'NONE',  ( 0.000000000000000000, 0.000000000000000000, 3.000000000000000000 ) ) ;
#7 = AXIS2_PLACEMENT_3D ( 'NONE', #214, #212, #235 ) ;
#8 = SECURITY_CLASSIFICATION_LEVEL ( 'unclassified' ) ;
#9 = VERTEX_POINT ( 'NONE', #230 ) ;
#10 = DATE_AND_TIME ( #89, #263 ) ;
#11 = ORIENTED_EDGE ( 'NONE', *, *, #46, .T. ) ;
#12 = APPROVAL ( #220, 'NEURÈENÝ' ) ;
#13 = PERSON_AND_ORGANIZATION ( #137, #82 ) ;
#14 = AXIS2_PLACEMENT_3D ( 'NONE', #79, #114, #74 ) ;
#15 = VERTEX_POINT ( 'NONE', #26 ) ;
#16 = APPROVAL_PERSON_ORGANIZATION ( #179, #12, #223 ) ;
#17 = CARTESIAN_POINT ( 'NONE',  ( 0.000000000000000000, 0.000000000000000000, 0.000000000000000000 ) ) ;
#18 = EDGE_LOOP ( 'NONE', ( #43, #178, #242, #277 ) ) ;
#19 = DATE_AND_TIME ( #134, #170 ) ;
#20 = EDGE_CURVE ( 'NONE', #156, #53, #100, .T. ) ;
#21 = PLANE ( 'NONE',  #200 ) ;
#22 = AXIS2_PLACEMENT_3D ( 'NONE', #287, #30, #171 ) ;
#23 = CYLINDRICAL_SURFACE ( 'NONE', #141, 5.000000000000000000 ) ;
#24 = ORIENTED_EDGE ( 'NONE', *, *, #5, .F. ) ;
#25 = CC_DESIGN_PERSON_AND_ORGANIZATION_ASSIGNMENT ( #157, #246, ( #184 ) ) ;
#26 = CARTESIAN_POINT ( 'NONE',  ( 5.000000000000000000, 6.123233995736766282E-16, 3.000000000000000000 ) ) ;
#27 = DIRECTION ( 'NONE',  ( 1.224646799147353207E-16, 1.000000000000000000, -0.000000000000000000 ) ) ;
#28 = AXIS2_PLACEMENT_3D ( 'NONE', #122, #80, #151 ) ;
#29 = FACE_OUTER_BOUND ( 'NONE', #18, .T. ) ;
#30 = DIRECTION ( 'NONE',  ( 0.000000000000000000, 0.000000000000000000, 1.000000000000000000 ) ) ;
#31 = AXIS2_PLACEMENT_3D ( 'NONE', #162, #252, #206 ) ;
#32 = CARTESIAN_POINT ( 'NONE',  ( 0.000000000000000000, 0.000000000000000000, 128.0000000000000000 ) ) ;
#33 = CIRCLE ( 'NONE', #299, 5.000000000000000000 ) ;
#34 = DIRECTION ( 'NONE',  ( 0.000000000000000000, -1.000000000000000000, 0.000000000000000000 ) ) ;
#35 = EDGE_CURVE ( 'NONE', #102, #139, #254, .T. ) ;
#36 = CARTESIAN_POINT ( 'NONE',  ( 5.000000000000000000, 6.123233995736766282E-16, 0.000000000000000000 ) ) ;
#37 = VECTOR ( 'NONE', #99, 1000.000000000000000 ) ;
#38 = EDGE_LOOP ( 'NONE', ( #180, #272, #269, #187 ) ) ;
#39 = ORIENTED_EDGE ( 'NONE', *, *, #5, .T. ) ;
#40 = DIRECTION ( 'NONE',  ( 0.000000000000000000, 0.000000000000000000, 1.000000000000000000 ) ) ;
#41 = MANIFOLD_SOLID_BREP ( 'Zaoblit1', #97 ) ;
#42 = COORDINATED_UNIVERSAL_TIME_OFFSET ( 1, 0, .AHEAD. ) ;
#43 = ORIENTED_EDGE ( 'NONE', *, *, #275, .F. ) ;
#44 = DATE_AND_TIME ( #195, #239 ) ;
#45 = VERTEX_POINT ( 'NONE', #119 ) ;
#46 = EDGE_CURVE ( 'NONE', #232, #164, #249, .T. ) ;
#47 = FACE_OUTER_BOUND ( 'NONE', #121, .T. ) ;
#48 = FACE_OUTER_BOUND ( 'NONE', #231, .T. ) ;
#49 = AXIS2_PLACEMENT_3D ( 'NONE', #282, #108, #172 ) ;
#50 = DIRECTION ( 'NONE',  ( 0.000000000000000000, 0.000000000000000000, 1.000000000000000000 ) ) ;
#51 = ADVANCED_FACE ( 'NONE', ( #73 ), #194, .F. ) ;
#52 = DIRECTION ( 'NONE',  ( -1.000000000000000000, 0.000000000000000000, 0.000000000000000000 ) ) ;
#53 = VERTEX_POINT ( 'NONE', #183 ) ;
#54 = AXIS2_PLACEMENT_3D ( 'NONE', #209, #163, #185 ) ;
#55 = PRODUCT ( '54af', '54af', '', ( #175 ) ) ;
#56 = CARTESIAN_POINT ( 'NONE',  ( 0.000000000000000000, 0.000000000000000000, 128.0000000000000000 ) ) ;
#57 = CIRCLE ( 'NONE', #83, 0.2000000000000000944 ) ;
#58 = ADVANCED_FACE ( 'NONE', ( #47 ), #117, .T. ) ;
#59 = CARTESIAN_POINT ( 'NONE',  ( 5.000000000000000000, 6.123233995736766282E-16, 3.000000000000000000 ) ) ;
#60 =( LENGTH_UNIT ( ) NAMED_UNIT ( * ) SI_UNIT ( .MILLI., .METRE. ) );
#61 = AXIS2_PLACEMENT_3D ( 'NONE', #255, #50, #118 ) ;
#62 = DIRECTION ( 'NONE',  ( 0.000000000000000000, 0.000000000000000000, 1.000000000000000000 ) ) ;
#63 = PRODUCT_DEFINITION_SHAPE ( 'NONE', 'NONE',  #184 ) ;
#64 = ADVANCED_FACE ( 'NONE', ( #234 ), #278, .T. ) ;
#65 = DATE_AND_TIME ( #250, #120 ) ;
#66 = PERSON_AND_ORGANIZATION ( #137, #82 ) ;
#67 = VERTEX_POINT ( 'NONE', #166 ) ;
#68 = CALENDAR_DATE ( 2022, 7, 7 ) ;
#69 = APPROVAL_STATUS ( 'not_yet_approved' ) ;
#70 = APPROVAL_ROLE ( '' ) ;
#71 = ADVANCED_FACE ( 'NONE', ( #98 ), #21, .T. ) ;
#72 = CC_DESIGN_SECURITY_CLASSIFICATION ( #305, ( #148 ) ) ;
#73 = FACE_OUTER_BOUND ( 'NONE', #38, .T. ) ;
#74 = DIRECTION ( 'NONE',  ( 1.000000000000000000, 0.000000000000000000, 0.000000000000000000 ) ) ;
#75 = ADVANCED_FACE ( 'NONE', ( #48 ), #23, .T. ) ;
#76 = LINE ( 'NONE', #300, #37 ) ;
#77 = APPROVAL_PERSON_ORGANIZATION ( #153, #128, #129 ) ;
#78 = EDGE_LOOP ( 'NONE', ( #39, #198 ) ) ;
#79 = CARTESIAN_POINT ( 'NONE',  ( 0.000000000000000000, 0.000000000000000000, 3.000000000000000000 ) ) ;
#80 = DIRECTION ( 'NONE',  ( 0.000000000000000000, 0.000000000000000000, 1.000000000000000000 ) ) ;
#81 = DIRECTION ( 'NONE',  ( -0.000000000000000000, -0.000000000000000000, -1.000000000000000000 ) ) ;
#82 = ORGANIZATION ( 'NEURÈENÝ', 'NEURÈENÝ', '' ) ;
#83 = AXIS2_PLACEMENT_3D ( 'NONE', #1, #34, #125 ) ;
#84 = DIRECTION ( 'NONE',  ( 0.000000000000000000, 0.000000000000000000, 1.000000000000000000 ) ) ;
#85 = CC_DESIGN_PERSON_AND_ORGANIZATION_ASSIGNMENT ( #273, #266, ( #148 ) ) ;
#86 = DIRECTION ( 'NONE',  ( -0.000000000000000000, -0.000000000000000000, -1.000000000000000000 ) ) ;
#87 = CARTESIAN_POINT ( 'NONE',  ( 0.000000000000000000, 0.000000000000000000, 0.000000000000000000 ) ) ;
#88 = CIRCLE ( 'NONE', #49, 2.750000000000000000 ) ;
#89 = CALENDAR_DATE ( 2022, 7, 7 ) ;
#90 = ORIENTED_EDGE ( 'NONE', *, *, #124, .F. ) ;
#91 = DESIGN_CONTEXT ( 'detailed design', #302, 'design' ) ;
#92 = AXIS2_PLACEMENT_3D ( 'NONE', #56, #81, #216 ) ;
#93 = ORIENTED_EDGE ( 'NONE', *, *, #281, .F. ) ;
#94 = APPROVAL_DATE_TIME ( #10, #128 ) ;
#95 = EDGE_CURVE ( 'NONE', #67, #102, #76, .T. ) ;
#96 = ORIENTED_EDGE ( 'NONE', *, *, #196, .F. ) ;
#97 = CLOSED_SHELL ( 'NONE', ( #115, #285, #64, #75, #113, #103, #58, #71, #51 ) ) ;
#98 = FACE_OUTER_BOUND ( 'NONE', #293, .T. ) ;
#99 = DIRECTION ( 'NONE',  ( -0.000000000000000000, -0.000000000000000000, -1.000000000000000000 ) ) ;
#100 = LINE ( 'NONE', #188, #159 ) ;
#101 = ORIENTED_EDGE ( 'NONE', *, *, #95, .T. ) ;
#102 = VERTEX_POINT ( 'NONE', #257 ) ;
#103 = ADVANCED_FACE ( 'NONE', ( #144 ), #123, .F. ) ;
#104 = DIRECTION ( 'NONE',  ( -0.000000000000000000, -0.000000000000000000, -1.000000000000000000 ) ) ;
#105 = AXIS2_PLACEMENT_3D ( 'NONE', #149, #106, #3 ) ;
#106 = DIRECTION ( 'NONE',  ( 0.000000000000000000, 0.000000000000000000, 1.000000000000000000 ) ) ;
#107 = CARTESIAN_POINT ( 'NONE',  ( 0.000000000000000000, 0.000000000000000000, 3.000000000000000000 ) ) ;
#108 = DIRECTION ( 'NONE',  ( 0.000000000000000000, 0.000000000000000000, 1.000000000000000000 ) ) ;
#109 = DIRECTION ( 'NONE',  ( 1.000000000000000000, 0.000000000000000000, 0.000000000000000000 ) ) ;
#110 = COORDINATED_UNIVERSAL_TIME_OFFSET ( 1, 0, .AHEAD. ) ;
#111 = ORIENTED_EDGE ( 'NONE', *, *, #145, .T. ) ;
#112 = AXIS2_PLACEMENT_3D ( 'NONE', #32, #84, #260 ) ;
#113 = ADVANCED_FACE ( 'NONE', ( #283, #4 ), #168, .T. ) ;
#114 = DIRECTION ( 'NONE',  ( 0.000000000000000000, 0.000000000000000000, 1.000000000000000000 ) ) ;
#115 = ADVANCED_FACE ( 'NONE', ( #192 ), #256, .F. ) ;
#116 = CIRCLE ( 'NONE', #165, 2.949999999999999734 ) ;
#117 = CYLINDRICAL_SURFACE ( 'NONE', #54, 2.750000000000000000 ) ;
#118 = DIRECTION ( 'NONE',  ( 1.000000000000000000, 0.000000000000000000, 0.000000000000000000 ) ) ;
#119 = CARTESIAN_POINT ( 'NONE',  ( -5.000000000000000000, 0.000000000000000000, 3.000000000000000000 ) ) ;
#120 = LOCAL_TIME ( 12, 16, 12.00000000000000000, #42 ) ;
#121 = EDGE_LOOP ( 'NONE', ( #227, #131, #101, #205 ) ) ;
#122 = CARTESIAN_POINT ( 'NONE',  ( 0.000000000000000000, 0.000000000000000000, 3.199999999999994404 ) ) ;
#123 = PLANE ( 'NONE',  #229 ) ;
#124 = EDGE_CURVE ( 'NONE', #164, #232, #2, .T. ) ;
#125 = DIRECTION ( 'NONE',  ( 0.000000000000000000, 0.000000000000000000, -1.000000000000000000 ) ) ;
#126 = VECTOR ( 'NONE', #86, 1000.000000000000000 ) ;
#127 = DIRECTION ( 'NONE',  ( -0.000000000000000000, -0.000000000000000000, -1.000000000000000000 ) ) ;
#128 = APPROVAL ( #69, 'NEURÈENÝ' ) ;
#129 = APPROVAL_ROLE ( '' ) ;
#130 = APPROVAL_DATE_TIME ( #203, #12 ) ;
#131 = ORIENTED_EDGE ( 'NONE', *, *, #145, .F. ) ;
#132 = DATE_TIME_ROLE ( 'creation_date' ) ;
#133 = EDGE_CURVE ( 'NONE', #15, #232, #286, .T. ) ;
#134 = CALENDAR_DATE ( 2022, 7, 7 ) ;
#135 = EDGE_LOOP ( 'NONE', ( #93, #182, #96, #274 ) ) ;
#136 = AXIS2_PLACEMENT_3D ( 'NONE', #193, #62, #289 ) ;
#137 = PERSON ( 'NEURÈENÝ', 'NEURÈENÝ', 'NEURÈENÝ', ('NEURÈENÝ'), ('NEURÈENÝ'), ('NEURÈENÝ') ) ;
#138 = APPROVAL_DATE_TIME ( #44, #217 ) ;
#139 = VERTEX_POINT ( 'NONE', #219 ) ;
#140 = ORIENTED_EDGE ( 'NONE', *, *, #133, .T. ) ;
#141 = AXIS2_PLACEMENT_3D ( 'NONE', #208, #304, #52 ) ;
#142 = DIRECTION ( 'NONE',  ( 1.000000000000000000, 0.000000000000000000, -0.000000000000000000 ) ) ;
#143 = DIRECTION ( 'NONE',  ( -0.000000000000000000, -0.000000000000000000, -1.000000000000000000 ) ) ;
#144 = FACE_OUTER_BOUND ( 'NONE', #154, .T. ) ;
#145 = EDGE_CURVE ( 'NONE', #67, #156, #225, .T. ) ;
#146 = DIRECTION ( 'NONE',  ( 1.000000000000000000, 0.000000000000000000, 0.000000000000000000 ) ) ;
#147 = AXIS2_PLACEMENT_3D ( 'NONE', #228, #27, #259 ) ;
#148 = PRODUCT_DEFINITION_FORMATION_WITH_SPECIFIED_SOURCE ( 'LIBOVOLNÝ', '', #55, .NOT_KNOWN. ) ;
#149 = CARTESIAN_POINT ( 'NONE',  ( 0.000000000000000000, 0.000000000000000000, 3.000000000000000000 ) ) ;
#150 = CARTESIAN_POINT ( 'NONE',  ( 2.750000000000000000, 3.367778697655221012E-16, 128.0000000000000000 ) ) ;
#151 = DIRECTION ( 'NONE',  ( 1.000000000000000000, 0.000000000000000000, 0.000000000000000000 ) ) ;
#152 = DIRECTION ( 'NONE',  ( 1.000000000000000000, 0.000000000000000000, -0.000000000000000000 ) ) ;
#153 = PERSON_AND_ORGANIZATION ( #137, #82 ) ;
#154 = EDGE_LOOP ( 'NONE', ( #90, #297 ) ) ;
#155 = PERSON_AND_ORGANIZATION_ROLE ( 'design_supplier' ) ;
#156 = VERTEX_POINT ( 'NONE', #150 ) ;
#157 = PERSON_AND_ORGANIZATION ( #137, #82 ) ;
#158 = APPLICATION_PROTOCOL_DEFINITION ( 'international standard', 'config_control_design', 1994, #302 ) ;
#159 = VECTOR ( 'NONE', #143, 1000.000000000000000 ) ;
#160 = COORDINATED_UNIVERSAL_TIME_OFFSET ( 1, 0, .AHEAD. ) ;
#161 = ORIENTED_EDGE ( 'NONE', *, *, #196, .T. ) ;
#162 = CARTESIAN_POINT ( 'NONE',  ( 0.000000000000000000, 0.000000000000000000, 3.000000000000000000 ) ) ;
#163 = DIRECTION ( 'NONE',  ( -0.000000000000000000, -0.000000000000000000, -1.000000000000000000 ) ) ;
#164 = VERTEX_POINT ( 'NONE', #236 ) ;
#165 = AXIS2_PLACEMENT_3D ( 'NONE', #191, #127, #262 ) ;
#166 = CARTESIAN_POINT ( 'NONE',  ( -2.750000000000000000, 0.000000000000000000, 128.0000000000000000 ) ) ;
#167 = ORIENTED_EDGE ( 'NONE', *, *, #124, .T. ) ;
#168 = PLANE ( 'NONE',  #105 ) ;
#169 = EDGE_CURVE ( 'NONE', #53, #9, #57, .T. ) ;
#170 = LOCAL_TIME ( 12, 16, 12.00000000000000000, #110 ) ;
#171 = DIRECTION ( 'NONE',  ( 1.000000000000000000, 0.000000000000000000, 0.000000000000000000 ) ) ;
#172 = DIRECTION ( 'NONE',  ( 1.000000000000000000, 0.000000000000000000, 0.000000000000000000 ) ) ;
#173 =( NAMED_UNIT ( * ) PLANE_ANGLE_UNIT ( ) SI_UNIT ( $, .RADIAN. ) );
#174 = CARTESIAN_POINT ( 'NONE',  ( -5.000000000000000000, 0.000000000000000000, 3.000000000000000000 ) ) ;
#175 = MECHANICAL_CONTEXT ( 'NONE', #288, 'mechanical' ) ;
#176 = CIRCLE ( 'NONE', #279, 2.949999999999999734 ) ;
#177 = DATE_TIME_ROLE ( 'classification_date' ) ;
#178 = ORIENTED_EDGE ( 'NONE', *, *, #20, .T. ) ;
#179 = PERSON_AND_ORGANIZATION ( #137, #82 ) ;
#180 = ORIENTED_EDGE ( 'NONE', *, *, #35, .F. ) ;
#181 = CC_DESIGN_DATE_AND_TIME_ASSIGNMENT ( #65, #132, ( #184 ) ) ;
#182 = ORIENTED_EDGE ( 'NONE', *, *, #35, .T. ) ;
#183 = CARTESIAN_POINT ( 'NONE',  ( 2.750000000000000000, 3.367778697655221012E-16, 3.199999999999994404 ) ) ;
#184 = PRODUCT_DEFINITION ( 'NEZNÁMÝ', '', #148, #91 ) ;
#185 = DIRECTION ( 'NONE',  ( -1.000000000000000000, 0.000000000000000000, 0.000000000000000000 ) ) ;
#186 = APPROVAL_PERSON_ORGANIZATION ( #270, #217, #70 ) ;
#187 = ORIENTED_EDGE ( 'NONE', *, *, #204, .F. ) ;
#188 = CARTESIAN_POINT ( 'NONE',  ( 2.750000000000000000, 3.367778697655221012E-16, 128.0000000000000000 ) ) ;
#189 = CYLINDRICAL_SURFACE ( 'NONE', #92, 2.750000000000000000 ) ;
#190 = AXIS2_PLACEMENT_3D ( 'NONE', #17, #40, #109 ) ;
#191 = CARTESIAN_POINT ( 'NONE',  ( 0.000000000000000000, 0.000000000000000000, 3.000000000000000000 ) ) ;
#192 = FACE_OUTER_BOUND ( 'NONE', #135, .T. ) ;
#193 = CARTESIAN_POINT ( 'NONE',  ( 0.000000000000000000, 0.000000000000000000, 3.199999999999994404 ) ) ;
#194 = TOROIDAL_SURFACE ( 'NONE', #233, 2.949999999999999734, 0.2000000000000000111 ) ;
#195 = CALENDAR_DATE ( 2022, 7, 7 ) ;
#196 = EDGE_CURVE ( 'NONE', #9, #139, #116, .T. ) ;
#197 = APPLICATION_PROTOCOL_DEFINITION ( 'international standard', 'config_control_design', 1994, #288 ) ;
#198 = ORIENTED_EDGE ( 'NONE', *, *, #303, .T. ) ;
#199 = UNCERTAINTY_MEASURE_WITH_UNIT (LENGTH_MEASURE( 1.000000000000000082E-05 ), #60, 'distance_accuracy_value', 'NONE');
#200 = AXIS2_PLACEMENT_3D ( 'NONE', #276, #253, #142 ) ;
#201 = COORDINATED_UNIVERSAL_TIME_OFFSET ( 1, 0, .AHEAD. ) ;
#202 = VECTOR ( 'NONE', #307, 1000.000000000000000 ) ;
#203 = DATE_AND_TIME ( #68, #215 ) ;
#204 = EDGE_CURVE ( 'NONE', #139, #9, #176, .T. ) ;
#205 = ORIENTED_EDGE ( 'NONE', *, *, #281, .T. ) ;
#206 = DIRECTION ( 'NONE',  ( -1.000000000000000000, 0.000000000000000000, 0.000000000000000000 ) ) ;
#207 = CIRCLE ( 'NONE', #136, 2.750000000000000000 ) ;
#208 = CARTESIAN_POINT ( 'NONE',  ( 0.000000000000000000, 0.000000000000000000, 3.000000000000000000 ) ) ;
#209 = CARTESIAN_POINT ( 'NONE',  ( 0.000000000000000000, 0.000000000000000000, 128.0000000000000000 ) ) ;
#210 =( GEOMETRIC_REPRESENTATION_CONTEXT ( 3 ) GLOBAL_UNCERTAINTY_ASSIGNED_CONTEXT ( ( #199 ) ) GLOBAL_UNIT_ASSIGNED_CONTEXT ( ( #60, #173, #291 ) ) REPRESENTATION_CONTEXT ( 'NONE', 'WORKASPACE' ) );
#211 = CARTESIAN_POINT ( 'NONE',  ( 0.000000000000000000, 0.000000000000000000, 3.199999999999994404 ) ) ;
#212 = DIRECTION ( 'NONE',  ( 0.000000000000000000, 0.000000000000000000, 1.000000000000000000 ) ) ;
#213 = PRODUCT_RELATED_PRODUCT_CATEGORY ( 'detail', '', ( #55 ) ) ;
#214 = CARTESIAN_POINT ( 'NONE',  ( 0.000000000000000000, 0.000000000000000000, 128.0000000000000000 ) ) ;
#215 = LOCAL_TIME ( 12, 16, 12.00000000000000000, #247 ) ;
#216 = DIRECTION ( 'NONE',  ( -1.000000000000000000, 0.000000000000000000, 0.000000000000000000 ) ) ;
#217 = APPROVAL ( #224, 'NEURÈENÝ' ) ;
#218 = LINE ( 'NONE', #174, #126 ) ;
#219 = CARTESIAN_POINT ( 'NONE',  ( -2.949999999999999734, 3.612708057484692097E-16, 2.999999999999997335 ) ) ;
#220 = APPROVAL_STATUS ( 'not_yet_approved' ) ;
#221 = PERSON_AND_ORGANIZATION_ROLE ( 'classification_officer' ) ;
#222 = EDGE_LOOP ( 'NONE', ( #248, #140, #11, #251 ) ) ;
#223 = APPROVAL_ROLE ( '' ) ;
#224 = APPROVAL_STATUS ( 'not_yet_approved' ) ;
#225 = CIRCLE ( 'NONE', #7, 2.750000000000000000 ) ;
#226 = SHAPE_DEFINITION_REPRESENTATION ( #63, #258 ) ;
#227 = ORIENTED_EDGE ( 'NONE', *, *, #20, .F. ) ;
#228 = CARTESIAN_POINT ( 'NONE',  ( -2.949999999999999734, 3.612708057484692097E-16, 3.199999999999994404 ) ) ;
#229 = AXIS2_PLACEMENT_3D ( 'NONE', #87, #240, #152 ) ;
#230 = CARTESIAN_POINT ( 'NONE',  ( 2.949999999999999734, 0.000000000000000000, 2.999999999999997335 ) ) ;
#231 = EDGE_LOOP ( 'NONE', ( #280, #24, #294, #167 ) ) ;
#232 = VERTEX_POINT ( 'NONE', #36 ) ;
#233 = AXIS2_PLACEMENT_3D ( 'NONE', #211, #301, #146 ) ;
#234 = FACE_OUTER_BOUND ( 'NONE', #222, .T. ) ;
#235 = DIRECTION ( 'NONE',  ( 1.000000000000000000, 0.000000000000000000, 0.000000000000000000 ) ) ;
#236 = CARTESIAN_POINT ( 'NONE',  ( -5.000000000000000000, 0.000000000000000000, 0.000000000000000000 ) ) ;
#237 = DIRECTION ( 'NONE',  ( 1.000000000000000000, 0.000000000000000000, 0.000000000000000000 ) ) ;
#238 = EDGE_CURVE ( 'NONE', #45, #164, #218, .T. ) ;
#239 = LOCAL_TIME ( 12, 16, 12.00000000000000000, #160 ) ;
#240 = DIRECTION ( 'NONE',  ( 0.000000000000000000, 0.000000000000000000, 1.000000000000000000 ) ) ;
#241 = DIRECTION ( 'NONE',  ( 0.000000000000000000, 0.000000000000000000, 1.000000000000000000 ) ) ;
#242 = ORIENTED_EDGE ( 'NONE', *, *, #295, .T. ) ;
#243 = CC_DESIGN_APPROVAL ( #217, ( #305 ) ) ;
#244 = CC_DESIGN_PERSON_AND_ORGANIZATION_ASSIGNMENT ( #292, #268, ( #55 ) ) ;
#245 = CIRCLE ( 'NONE', #112, 2.750000000000000000 ) ;
#246 = PERSON_AND_ORGANIZATION_ROLE ( 'creator' ) ;
#247 = COORDINATED_UNIVERSAL_TIME_OFFSET ( 1, 0, .AHEAD. ) ;
#248 = ORIENTED_EDGE ( 'NONE', *, *, #303, .F. ) ;
#249 = CIRCLE ( 'NONE', #61, 5.000000000000000000 ) ;
#250 = CALENDAR_DATE ( 2022, 7, 7 ) ;
#251 = ORIENTED_EDGE ( 'NONE', *, *, #238, .F. ) ;
#252 = DIRECTION ( 'NONE',  ( -0.000000000000000000, -0.000000000000000000, -1.000000000000000000 ) ) ;
#253 = DIRECTION ( 'NONE',  ( 0.000000000000000000, 0.000000000000000000, 1.000000000000000000 ) ) ;
#254 = CIRCLE ( 'NONE', #147, 0.2000000000000000944 ) ;
#255 = CARTESIAN_POINT ( 'NONE',  ( 0.000000000000000000, 0.000000000000000000, 0.000000000000000000 ) ) ;
#256 = TOROIDAL_SURFACE ( 'NONE', #28, 2.949999999999999734, 0.2000000000000000111 ) ;
#257 = CARTESIAN_POINT ( 'NONE',  ( -2.750000000000000000, 0.000000000000000000, 3.199999999999994404 ) ) ;
#258 = ADVANCED_BREP_SHAPE_REPRESENTATION ( '54af', ( #41, #190 ), #210 ) ;
#259 = DIRECTION ( 'NONE',  ( -1.000000000000000000, 1.224646799147353207E-16, 0.000000000000000000 ) ) ;
#260 = DIRECTION ( 'NONE',  ( 1.000000000000000000, 0.000000000000000000, 0.000000000000000000 ) ) ;
#261 = CC_DESIGN_DATE_AND_TIME_ASSIGNMENT ( #19, #177, ( #305 ) ) ;
#262 = DIRECTION ( 'NONE',  ( 1.000000000000000000, 0.000000000000000000, 0.000000000000000000 ) ) ;
#263 = LOCAL_TIME ( 12, 16, 12.00000000000000000, #201 ) ;
#264 = DIRECTION ( 'NONE',  ( 1.000000000000000000, 0.000000000000000000, 0.000000000000000000 ) ) ;
#265 = CC_DESIGN_PERSON_AND_ORGANIZATION_ASSIGNMENT ( #13, #221, ( #305 ) ) ;
#266 = PERSON_AND_ORGANIZATION_ROLE ( 'creator' ) ;
#267 = ORIENTED_EDGE ( 'NONE', *, *, #275, .T. ) ;
#268 = PERSON_AND_ORGANIZATION_ROLE ( 'design_owner' ) ;
#269 = ORIENTED_EDGE ( 'NONE', *, *, #169, .T. ) ;
#270 = PERSON_AND_ORGANIZATION ( #137, #82 ) ;
#271 = CC_DESIGN_PERSON_AND_ORGANIZATION_ASSIGNMENT ( #66, #155, ( #148 ) ) ;
#272 = ORIENTED_EDGE ( 'NONE', *, *, #295, .F. ) ;
#273 = PERSON_AND_ORGANIZATION ( #137, #82 ) ;
#274 = ORIENTED_EDGE ( 'NONE', *, *, #169, .F. ) ;
#275 = EDGE_CURVE ( 'NONE', #156, #67, #245, .T. ) ;
#276 = CARTESIAN_POINT ( 'NONE',  ( 0.000000000000000000, 0.000000000000000000, 128.0000000000000000 ) ) ;
#277 = ORIENTED_EDGE ( 'NONE', *, *, #95, .F. ) ;
#278 = CYLINDRICAL_SURFACE ( 'NONE', #31, 5.000000000000000000 ) ;
#279 = AXIS2_PLACEMENT_3D ( 'NONE', #6, #104, #237 ) ;
#280 = ORIENTED_EDGE ( 'NONE', *, *, #133, .F. ) ;
#281 = EDGE_CURVE ( 'NONE', #102, #53, #88, .T. ) ;
#282 = CARTESIAN_POINT ( 'NONE',  ( 0.000000000000000000, 0.000000000000000000, 3.199999999999994404 ) ) ;
#283 = FACE_BOUND ( 'NONE', #306, .T. ) ;
#284 = CC_DESIGN_APPROVAL ( #128, ( #148 ) ) ;
#285 = ADVANCED_FACE ( 'NONE', ( #29 ), #189, .T. ) ;
#286 = LINE ( 'NONE', #59, #202 ) ;
#287 = CARTESIAN_POINT ( 'NONE',  ( 0.000000000000000000, 0.000000000000000000, 0.000000000000000000 ) ) ;
#288 = APPLICATION_CONTEXT ( 'configuration controlled 3d designs of mechanical parts and assemblies' ) ;
#289 = DIRECTION ( 'NONE',  ( 1.000000000000000000, 0.000000000000000000, 0.000000000000000000 ) ) ;
#290 = CIRCLE ( 'NONE', #14, 5.000000000000000000 ) ;
#291 =( NAMED_UNIT ( * ) SI_UNIT ( $, .STERADIAN. ) SOLID_ANGLE_UNIT ( ) );
#292 = PERSON_AND_ORGANIZATION ( #137, #82 ) ;
#293 = EDGE_LOOP ( 'NONE', ( #111, #267 ) ) ;
#294 = ORIENTED_EDGE ( 'NONE', *, *, #238, .T. ) ;
#295 = EDGE_CURVE ( 'NONE', #53, #102, #207, .T. ) ;
#296 = CC_DESIGN_APPROVAL ( #12, ( #184 ) ) ;
#297 = ORIENTED_EDGE ( 'NONE', *, *, #46, .F. ) ;
#298 = ORIENTED_EDGE ( 'NONE', *, *, #204, .T. ) ;
#299 = AXIS2_PLACEMENT_3D ( 'NONE', #107, #241, #264 ) ;
#300 = CARTESIAN_POINT ( 'NONE',  ( -2.750000000000000000, 0.000000000000000000, 128.0000000000000000 ) ) ;
#301 = DIRECTION ( 'NONE',  ( 0.000000000000000000, 0.000000000000000000, 1.000000000000000000 ) ) ;
#302 = APPLICATION_CONTEXT ( 'configuration controlled 3d designs of mechanical parts and assemblies' ) ;
#303 = EDGE_CURVE ( 'NONE', #15, #45, #33, .T. ) ;
#304 = DIRECTION ( 'NONE',  ( -0.000000000000000000, -0.000000000000000000, -1.000000000000000000 ) ) ;
#305 = SECURITY_CLASSIFICATION ( '', '', #8 ) ;
#306 = EDGE_LOOP ( 'NONE', ( #161, #298 ) ) ;
#307 = DIRECTION ( 'NONE',  ( -0.000000000000000000, -0.000000000000000000, -1.000000000000000000 ) ) ;
ENDSEC;
END-ISO-10303-21;
