ISO-10303-21;
HEADER;
FILE_DESCRIPTION (( 'STEP AP203' ),
    '1' );
FILE_NAME ('a93f.STEP',
    '2022-07-07T10:33:48',
    ( '' ),
    ( '' ),
    'SwSTEP 2.0',
    'SolidWorks 2019',
    '' );
FILE_SCHEMA (( 'CONFIG_CONTROL_DESIGN' ));
ENDSEC;

DATA;
#1 = FACE_OUTER_BOUND ( 'NONE', #7, .T. ) ;
#2 = EDGE_CURVE ( 'NONE', #270, #53, #121, .T. ) ;
#3 = CARTESIAN_POINT ( 'NONE',  ( 0.000000000000000000, 0.000000000000000000, 2.000000000000000000 ) ) ;
#4 = CARTESIAN_POINT ( 'NONE',  ( -1.300000000000000266, 1.592040838891559342E-16, 2.199999999999979750 ) ) ;
#5 = CIRCLE ( 'NONE', #47, 2.000000000000000000 ) ;
#6 = CC_DESIGN_APPROVAL ( #88, ( #58 ) ) ;
#7 = EDGE_LOOP ( 'NONE', ( #94, #68, #166, #131 ) ) ;
#8 = PRODUCT_DEFINITION ( 'NEZNÁMÝ', '', #297, #38 ) ;
#9 = DIRECTION ( 'NONE',  ( 0.000000000000000000, 0.000000000000000000, 1.000000000000000000 ) ) ;
#10 = CARTESIAN_POINT ( 'NONE',  ( -2.000000000000000000, 0.000000000000000000, 2.000000000000000000 ) ) ;
#11 = DIRECTION ( 'NONE',  ( -1.000000000000000000, 0.000000000000000000, 0.000000000000000000 ) ) ;
#12 = EDGE_CURVE ( 'NONE', #210, #270, #56, .T. ) ;
#13 = DIRECTION ( 'NONE',  ( -0.000000000000000000, -0.000000000000000000, -1.000000000000000000 ) ) ;
#14 = CARTESIAN_POINT ( 'NONE',  ( 0.000000000000000000, 0.000000000000000000, 2.000000000000000000 ) ) ;
#15 = LOCAL_TIME ( 12, 33, 48.00000000000000000, #160 ) ;
#16 = CARTESIAN_POINT ( 'NONE',  ( -2.000000000000000000, 0.000000000000000000, 2.000000000000000000 ) ) ;
#17 = PERSON_AND_ORGANIZATION ( #89, #112 ) ;
#18 = ORIENTED_EDGE ( 'NONE', *, *, #154, .T. ) ;
#19 = AXIS2_PLACEMENT_3D ( 'NONE', #84, #156, #11 ) ;
#20 = VERTEX_POINT ( 'NONE', #195 ) ;
#21 = COORDINATED_UNIVERSAL_TIME_OFFSET ( 1, 0, .AHEAD. ) ;
#22 = ORIENTED_EDGE ( 'NONE', *, *, #27, .F. ) ;
#23 = ADVANCED_FACE ( 'NONE', ( #74 ), #130, .F. ) ;
#24 = APPROVAL_STATUS ( 'not_yet_approved' ) ;
#25 =( NAMED_UNIT ( * ) SI_UNIT ( $, .STERADIAN. ) SOLID_ANGLE_UNIT ( ) );
#26 = ORIENTED_EDGE ( 'NONE', *, *, #304, .T. ) ;
#27 = EDGE_CURVE ( 'NONE', #150, #122, #127, .T. ) ;
#28 = ORIENTED_EDGE ( 'NONE', *, *, #154, .F. ) ;
#29 = CARTESIAN_POINT ( 'NONE',  ( 0.000000000000000000, 0.000000000000000000, 0.000000000000000000 ) ) ;
#30 = ORIENTED_EDGE ( 'NONE', *, *, #126, .F. ) ;
#31 = TOROIDAL_SURFACE ( 'NONE', #292, 1.300000000000000266, 0.2000000000000000111 ) ;
#32 = EDGE_CURVE ( 'NONE', #225, #53, #228, .T. ) ;
#33 = PLANE ( 'NONE',  #75 ) ;
#34 = CARTESIAN_POINT ( 'NONE',  ( 0.000000000000000000, 0.000000000000000000, 2.000000000000000000 ) ) ;
#35 = CARTESIAN_POINT ( 'NONE',  ( 0.000000000000000000, 0.000000000000000000, 2.199999999999979750 ) ) ;
#36 = AXIS2_PLACEMENT_3D ( 'NONE', #136, #158, #139 ) ;
#37 = DIRECTION ( 'NONE',  ( 1.000000000000000000, 0.000000000000000000, 0.000000000000000000 ) ) ;
#38 = DESIGN_CONTEXT ( 'detailed design', #105, 'design' ) ;
#39 = CARTESIAN_POINT ( 'NONE',  ( 0.000000000000000000, 0.000000000000000000, 2.199999999999979750 ) ) ;
#40 = VECTOR ( 'NONE', #221, 1000.000000000000000 ) ;
#41 = APPROVAL ( #24, 'NEURÈENÝ' ) ;
#42 = LOCAL_TIME ( 12, 33, 48.00000000000000000, #281 ) ;
#43 = DATE_AND_TIME ( #256, #15 ) ;
#44 = EDGE_LOOP ( 'NONE', ( #26, #238 ) ) ;
#45 = EDGE_LOOP ( 'NONE', ( #307, #301 ) ) ;
#46 = ORIENTED_EDGE ( 'NONE', *, *, #32, .T. ) ;
#47 = AXIS2_PLACEMENT_3D ( 'NONE', #82, #177, #203 ) ;
#48 = DIRECTION ( 'NONE',  ( 0.000000000000000000, 0.000000000000000000, 1.000000000000000000 ) ) ;
#49 = FACE_OUTER_BOUND ( 'NONE', #44, .T. ) ;
#50 = APPROVAL_PERSON_ORGANIZATION ( #87, #302, #260 ) ;
#51 = DIRECTION ( 'NONE',  ( -0.000000000000000000, -0.000000000000000000, -1.000000000000000000 ) ) ;
#52 = APPROVAL_PERSON_ORGANIZATION ( #17, #88, #186 ) ;
#53 = VERTEX_POINT ( 'NONE', #291 ) ;
#54 = DIRECTION ( 'NONE',  ( -1.000000000000000000, 0.000000000000000000, 0.000000000000000000 ) ) ;
#55 = ADVANCED_FACE ( 'NONE', ( #57, #49 ), #149, .T. ) ;
#56 = CIRCLE ( 'NONE', #261, 0.2000000000000000944 ) ;
#57 = FACE_BOUND ( 'NONE', #45, .T. ) ;
#58 = SECURITY_CLASSIFICATION ( '', '', #146 ) ;
#59 = CARTESIAN_POINT ( 'NONE',  ( 0.000000000000000000, 0.000000000000000000, 2.000000000000000000 ) ) ;
#60 = FACE_OUTER_BOUND ( 'NONE', #220, .T. ) ;
#61 = DIRECTION ( 'NONE',  ( -1.000000000000000000, 0.000000000000000000, 0.000000000000000000 ) ) ;
#62 = AXIS2_PLACEMENT_3D ( 'NONE', #108, #253, #37 ) ;
#63 = DIRECTION ( 'NONE',  ( -0.000000000000000000, -0.000000000000000000, -1.000000000000000000 ) ) ;
#64 = CARTESIAN_POINT ( 'NONE',  ( -1.100000000000000089, 0.000000000000000000, 402.0000000000000000 ) ) ;
#65 = EDGE_CURVE ( 'NONE', #97, #210, #99, .T. ) ;
#66 = APPLICATION_PROTOCOL_DEFINITION ( 'international standard', 'config_control_design', 1994, #191 ) ;
#67 = CALENDAR_DATE ( 2022, 7, 7 ) ;
#68 = ORIENTED_EDGE ( 'NONE', *, *, #196, .F. ) ;
#69 = ADVANCED_FACE ( 'NONE', ( #151 ), #199, .T. ) ;
#70 = PERSON_AND_ORGANIZATION_ROLE ( 'creator' ) ;
#71 = TOROIDAL_SURFACE ( 'NONE', #62, 1.300000000000000266, 0.2000000000000000111 ) ;
#72 = EDGE_LOOP ( 'NONE', ( #28, #30 ) ) ;
#73 = ORIENTED_EDGE ( 'NONE', *, *, #234, .F. ) ;
#74 = FACE_OUTER_BOUND ( 'NONE', #72, .T. ) ;
#75 = AXIS2_PLACEMENT_3D ( 'NONE', #226, #9, #244 ) ;
#76 = CIRCLE ( 'NONE', #251, 1.100000000000000089 ) ;
#77 = CARTESIAN_POINT ( 'NONE',  ( 1.300000000000000266, 0.000000000000000000, 2.199999999999979750 ) ) ;
#78 = ADVANCED_FACE ( 'NONE', ( #249 ), #33, .T. ) ;
#79 = ORIENTED_EDGE ( 'NONE', *, *, #126, .T. ) ;
#80 = CARTESIAN_POINT ( 'NONE',  ( 0.000000000000000000, 0.000000000000000000, 2.000000000000000000 ) ) ;
#81 = DIRECTION ( 'NONE',  ( 1.000000000000000000, 0.000000000000000000, 0.000000000000000000 ) ) ;
#82 = CARTESIAN_POINT ( 'NONE',  ( 0.000000000000000000, 0.000000000000000000, 2.000000000000000000 ) ) ;
#83 = ADVANCED_FACE ( 'NONE', ( #1 ), #287, .T. ) ;
#84 = CARTESIAN_POINT ( 'NONE',  ( 0.000000000000000000, 0.000000000000000000, 402.0000000000000000 ) ) ;
#85 = ADVANCED_FACE ( 'NONE', ( #298 ), #86, .T. ) ;
#86 = CYLINDRICAL_SURFACE ( 'NONE', #19, 1.100000000000000089 ) ;
#87 = PERSON_AND_ORGANIZATION ( #89, #112 ) ;
#88 = APPROVAL ( #114, 'NEURÈENÝ' ) ;
#89 = PERSON ( 'NEURÈENÝ', 'NEURÈENÝ', 'NEURÈENÝ', ('NEURÈENÝ'), ('NEURÈENÝ'), ('NEURÈENÝ') ) ;
#90 = APPLICATION_PROTOCOL_DEFINITION ( 'international standard', 'config_control_design', 1994, #105 ) ;
#91 = ORIENTED_EDGE ( 'NONE', *, *, #65, .T. ) ;
#92 = PERSON_AND_ORGANIZATION ( #89, #112 ) ;
#93 = APPROVAL_DATE_TIME ( #43, #41 ) ;
#94 = ORIENTED_EDGE ( 'NONE', *, *, #65, .F. ) ;
#95 = DATE_AND_TIME ( #237, #235 ) ;
#96 = VECTOR ( 'NONE', #13, 1000.000000000000000 ) ;
#97 = VERTEX_POINT ( 'NONE', #205 ) ;
#98 = ORIENTED_EDGE ( 'NONE', *, *, #196, .T. ) ;
#99 = LINE ( 'NONE', #200, #40 ) ;
#100 =( GEOMETRIC_REPRESENTATION_CONTEXT ( 3 ) GLOBAL_UNCERTAINTY_ASSIGNED_CONTEXT ( ( #241 ) ) GLOBAL_UNIT_ASSIGNED_CONTEXT ( ( #216, #120, #25 ) ) REPRESENTATION_CONTEXT ( 'NONE', 'WORKASPACE' ) );
#101 = CIRCLE ( 'NONE', #107, 2.000000000000000000 ) ;
#102 = DIRECTION ( 'NONE',  ( -0.000000000000000000, -0.000000000000000000, -1.000000000000000000 ) ) ;
#103 = DIRECTION ( 'NONE',  ( 0.000000000000000000, 0.000000000000000000, 1.000000000000000000 ) ) ;
#104 = ORIENTED_EDGE ( 'NONE', *, *, #12, .T. ) ;
#105 = APPLICATION_CONTEXT ( 'configuration controlled 3d designs of mechanical parts and assemblies' ) ;
#106 = DIRECTION ( 'NONE',  ( -0.000000000000000000, -0.000000000000000000, -1.000000000000000000 ) ) ;
#107 = AXIS2_PLACEMENT_3D ( 'NONE', #34, #179, #206 ) ;
#108 = CARTESIAN_POINT ( 'NONE',  ( 0.000000000000000000, 0.000000000000000000, 2.199999999999979750 ) ) ;
#109 = CARTESIAN_POINT ( 'NONE',  ( 2.000000000000000000, 2.449293598294706414E-16, 2.000000000000000000 ) ) ;
#110 = EDGE_CURVE ( 'NONE', #223, #20, #182, .T. ) ;
#111 = DIRECTION ( 'NONE',  ( -0.000000000000000000, -0.000000000000000000, -1.000000000000000000 ) ) ;
#112 = ORGANIZATION ( 'NEURÈENÝ', 'NEURÈENÝ', '' ) ;
#113 = DIRECTION ( 'NONE',  ( 0.000000000000000000, 0.000000000000000000, 1.000000000000000000 ) ) ;
#114 = APPROVAL_STATUS ( 'not_yet_approved' ) ;
#115 = EDGE_CURVE ( 'NONE', #306, #225, #231, .T. ) ;
#116 = CALENDAR_DATE ( 2022, 7, 7 ) ;
#117 = ORIENTED_EDGE ( 'NONE', *, *, #269, .T. ) ;
#118 = PRODUCT ( 'a93f', 'a93f', '', ( #239 ) ) ;
#119 = CC_DESIGN_PERSON_AND_ORGANIZATION_ASSIGNMENT ( #299, #209, ( #118 ) ) ;
#120 =( NAMED_UNIT ( * ) PLANE_ANGLE_UNIT ( ) SI_UNIT ( $, .RADIAN. ) );
#121 = CIRCLE ( 'NONE', #148, 1.300000000000000266 ) ;
#122 = VERTEX_POINT ( 'NONE', #159 ) ;
#123 = AXIS2_PLACEMENT_3D ( 'NONE', #59, #63, #61 ) ;
#124 = DIRECTION ( 'NONE',  ( 1.000000000000000000, 0.000000000000000000, -0.000000000000000000 ) ) ;
#125 = ORIENTED_EDGE ( 'NONE', *, *, #27, .T. ) ;
#126 = EDGE_CURVE ( 'NONE', #122, #20, #198, .T. ) ;
#127 = LINE ( 'NONE', #248, #211 ) ;
#128 = AXIS2_PLACEMENT_3D ( 'NONE', #268, #51, #181 ) ;
#129 = CIRCLE ( 'NONE', #140, 2.000000000000000000 ) ;
#130 = PLANE ( 'NONE',  #174 ) ;
#131 = ORIENTED_EDGE ( 'NONE', *, *, #173, .T. ) ;
#132 = CARTESIAN_POINT ( 'NONE',  ( 0.000000000000000000, 0.000000000000000000, 402.0000000000000000 ) ) ;
#133 = AXIS2_PLACEMENT_3D ( 'NONE', #153, #102, #54 ) ;
#134 = DIRECTION ( 'NONE',  ( 1.000000000000000000, 0.000000000000000000, 0.000000000000000000 ) ) ;
#135 = AXIS2_PLACEMENT_3D ( 'NONE', #14, #111, #157 ) ;
#136 = CARTESIAN_POINT ( 'NONE',  ( 0.000000000000000000, 0.000000000000000000, 402.0000000000000000 ) ) ;
#137 = EDGE_CURVE ( 'NONE', #53, #270, #245, .T. ) ;
#138 = DIRECTION ( 'NONE',  ( 1.000000000000000000, 0.000000000000000000, 0.000000000000000000 ) ) ;
#139 = DIRECTION ( 'NONE',  ( 1.000000000000000000, 0.000000000000000000, 0.000000000000000000 ) ) ;
#140 = AXIS2_PLACEMENT_3D ( 'NONE', #277, #293, #254 ) ;
#141 = COORDINATED_UNIVERSAL_TIME_OFFSET ( 1, 0, .AHEAD. ) ;
#142 = EDGE_LOOP ( 'NONE', ( #247, #73, #104, #197 ) ) ;
#143 = APPROVAL_DATE_TIME ( #259, #88 ) ;
#144 = ORIENTED_EDGE ( 'NONE', *, *, #234, .T. ) ;
#145 = AXIS2_PLACEMENT_3D ( 'NONE', #155, #250, #134 ) ;
#146 = SECURITY_CLASSIFICATION_LEVEL ( 'unclassified' ) ;
#147 = CALENDAR_DATE ( 2022, 7, 7 ) ;
#148 = AXIS2_PLACEMENT_3D ( 'NONE', #80, #152, #267 ) ;
#149 = PLANE ( 'NONE',  #212 ) ;
#150 = VERTEX_POINT ( 'NONE', #109 ) ;
#151 = FACE_OUTER_BOUND ( 'NONE', #271, .T. ) ;
#152 = DIRECTION ( 'NONE',  ( -0.000000000000000000, -0.000000000000000000, -1.000000000000000000 ) ) ;
#153 = CARTESIAN_POINT ( 'NONE',  ( 0.000000000000000000, 0.000000000000000000, 2.000000000000000000 ) ) ;
#154 = EDGE_CURVE ( 'NONE', #20, #122, #129, .T. ) ;
#155 = CARTESIAN_POINT ( 'NONE',  ( 0.000000000000000000, 0.000000000000000000, 2.199999999999979750 ) ) ;
#156 = DIRECTION ( 'NONE',  ( -0.000000000000000000, -0.000000000000000000, -1.000000000000000000 ) ) ;
#157 = DIRECTION ( 'NONE',  ( 1.000000000000000000, 0.000000000000000000, 0.000000000000000000 ) ) ;
#158 = DIRECTION ( 'NONE',  ( 0.000000000000000000, 0.000000000000000000, 1.000000000000000000 ) ) ;
#159 = CARTESIAN_POINT ( 'NONE',  ( 2.000000000000000000, 2.449293598294706414E-16, 0.000000000000000000 ) ) ;
#160 = COORDINATED_UNIVERSAL_TIME_OFFSET ( 1, 0, .AHEAD. ) ;
#161 = APPROVAL_DATE_TIME ( #213, #302 ) ;
#162 = PERSON_AND_ORGANIZATION_ROLE ( 'creator' ) ;
#163 = APPROVAL_STATUS ( 'not_yet_approved' ) ;
#164 = ADVANCED_FACE ( 'NONE', ( #252 ), #71, .F. ) ;
#165 = DATE_AND_TIME ( #147, #263 ) ;
#166 = ORIENTED_EDGE ( 'NONE', *, *, #115, .T. ) ;
#167 = ORIENTED_EDGE ( 'NONE', *, *, #269, .F. ) ;
#168 = DIRECTION ( 'NONE',  ( -1.000000000000000000, 1.224646799147353207E-16, 0.000000000000000000 ) ) ;
#169 = AXIS2_PLACEMENT_3D ( 'NONE', #35, #175, #81 ) ;
#170 = DIRECTION ( 'NONE',  ( 0.000000000000000000, -1.000000000000000000, 0.000000000000000000 ) ) ;
#171 = DIRECTION ( 'NONE',  ( 0.000000000000000000, 0.000000000000000000, 1.000000000000000000 ) ) ;
#172 = DIRECTION ( 'NONE',  ( 0.000000000000000000, 0.000000000000000000, -1.000000000000000000 ) ) ;
#173 = EDGE_CURVE ( 'NONE', #225, #210, #255, .T. ) ;
#174 = AXIS2_PLACEMENT_3D ( 'NONE', #29, #171, #289 ) ;
#175 = DIRECTION ( 'NONE',  ( 0.000000000000000000, 0.000000000000000000, 1.000000000000000000 ) ) ;
#176 = PRODUCT_RELATED_PRODUCT_CATEGORY ( 'detail', '', ( #118 ) ) ;
#177 = DIRECTION ( 'NONE',  ( 0.000000000000000000, 0.000000000000000000, 1.000000000000000000 ) ) ;
#178 = ADVANCED_FACE ( 'NONE', ( #60 ), #274, .T. ) ;
#179 = DIRECTION ( 'NONE',  ( 0.000000000000000000, 0.000000000000000000, 1.000000000000000000 ) ) ;
#180 = CC_DESIGN_DATE_AND_TIME_ASSIGNMENT ( #95, #264, ( #58 ) ) ;
#181 = DIRECTION ( 'NONE',  ( -1.000000000000000000, 0.000000000000000000, 0.000000000000000000 ) ) ;
#182 = LINE ( 'NONE', #10, #295 ) ;
#183 = CARTESIAN_POINT ( 'NONE',  ( 0.000000000000000000, 0.000000000000000000, 0.000000000000000000 ) ) ;
#184 = CC_DESIGN_PERSON_AND_ORGANIZATION_ASSIGNMENT ( #305, #70, ( #297 ) ) ;
#185 = MANIFOLD_SOLID_BREP ( 'Zaoblit1', #272 ) ;
#186 = APPROVAL_ROLE ( '' ) ;
#187 = PERSON_AND_ORGANIZATION ( #89, #112 ) ;
#188 = PERSON_AND_ORGANIZATION ( #89, #112 ) ;
#189 = PERSON_AND_ORGANIZATION_ROLE ( 'classification_officer' ) ;
#190 = CC_DESIGN_APPROVAL ( #41, ( #297 ) ) ;
#191 = APPLICATION_CONTEXT ( 'configuration controlled 3d designs of mechanical parts and assemblies' ) ;
#192 = SHAPE_DEFINITION_REPRESENTATION ( #193, #285 ) ;
#193 = PRODUCT_DEFINITION_SHAPE ( 'NONE', 'NONE',  #8 ) ;
#194 = ORIENTED_EDGE ( 'NONE', *, *, #115, .F. ) ;
#195 = CARTESIAN_POINT ( 'NONE',  ( -2.000000000000000000, 0.000000000000000000, 0.000000000000000000 ) ) ;
#196 = EDGE_CURVE ( 'NONE', #306, #97, #214, .T. ) ;
#197 = ORIENTED_EDGE ( 'NONE', *, *, #137, .F. ) ;
#198 = CIRCLE ( 'NONE', #242, 2.000000000000000000 ) ;
#199 = CYLINDRICAL_SURFACE ( 'NONE', #133, 2.000000000000000000 ) ;
#200 = CARTESIAN_POINT ( 'NONE',  ( 1.100000000000000089, 1.347111479062088503E-16, 402.0000000000000000 ) ) ;
#201 = EDGE_LOOP ( 'NONE', ( #217, #46, #286, #303 ) ) ;
#202 = CARTESIAN_POINT ( 'NONE',  ( 1.300000000000000266, 0.000000000000000000, 1.999999999999989564 ) ) ;
#203 = DIRECTION ( 'NONE',  ( 1.000000000000000000, 0.000000000000000000, 0.000000000000000000 ) ) ;
#204 = CC_DESIGN_PERSON_AND_ORGANIZATION_ASSIGNMENT ( #300, #262, ( #297 ) ) ;
#205 = CARTESIAN_POINT ( 'NONE',  ( 1.100000000000000089, 1.347111479062088503E-16, 402.0000000000000000 ) ) ;
#206 = DIRECTION ( 'NONE',  ( 1.000000000000000000, 0.000000000000000000, 0.000000000000000000 ) ) ;
#207 = ADVANCED_FACE ( 'NONE', ( #236 ), #31, .F. ) ;
#208 = CARTESIAN_POINT ( 'NONE',  ( -1.100000000000000089, 0.000000000000000000, 2.199999999999979750 ) ) ;
#209 = PERSON_AND_ORGANIZATION_ROLE ( 'design_owner' ) ;
#210 = VERTEX_POINT ( 'NONE', #232 ) ;
#211 = VECTOR ( 'NONE', #288, 1000.000000000000000 ) ;
#212 = AXIS2_PLACEMENT_3D ( 'NONE', #3, #103, #124 ) ;
#213 = DATE_AND_TIME ( #116, #224 ) ;
#214 = CIRCLE ( 'NONE', #36, 1.100000000000000089 ) ;
#215 = CC_DESIGN_PERSON_AND_ORGANIZATION_ASSIGNMENT ( #188, #162, ( #8 ) ) ;
#216 =( LENGTH_UNIT ( ) NAMED_UNIT ( * ) SI_UNIT ( .MILLI., .METRE. ) );
#217 = ORIENTED_EDGE ( 'NONE', *, *, #173, .F. ) ;
#218 = CC_DESIGN_PERSON_AND_ORGANIZATION_ASSIGNMENT ( #187, #189, ( #58 ) ) ;
#219 = DATE_TIME_ROLE ( 'creation_date' ) ;
#220 = EDGE_LOOP ( 'NONE', ( #22, #240, #273, #18 ) ) ;
#221 = DIRECTION ( 'NONE',  ( -0.000000000000000000, -0.000000000000000000, -1.000000000000000000 ) ) ;
#222 = DIRECTION ( 'NONE',  ( 1.224646799147353207E-16, 1.000000000000000000, -0.000000000000000000 ) ) ;
#223 = VERTEX_POINT ( 'NONE', #16 ) ;
#224 = LOCAL_TIME ( 12, 33, 48.00000000000000000, #21 ) ;
#225 = VERTEX_POINT ( 'NONE', #208 ) ;
#226 = CARTESIAN_POINT ( 'NONE',  ( 0.000000000000000000, 0.000000000000000000, 402.0000000000000000 ) ) ;
#227 = DIRECTION ( 'NONE',  ( 0.000000000000000000, 0.000000000000000000, 1.000000000000000000 ) ) ;
#228 = CIRCLE ( 'NONE', #233, 0.2000000000000000944 ) ;
#229 = CC_DESIGN_APPROVAL ( #302, ( #8 ) ) ;
#230 = DIRECTION ( 'NONE',  ( 1.000000000000000000, 0.000000000000000000, 0.000000000000000000 ) ) ;
#231 = LINE ( 'NONE', #64, #96 ) ;
#232 = CARTESIAN_POINT ( 'NONE',  ( 1.100000000000000089, 1.347111479062088503E-16, 2.199999999999979750 ) ) ;
#233 = AXIS2_PLACEMENT_3D ( 'NONE', #4, #222, #168 ) ;
#234 = EDGE_CURVE ( 'NONE', #210, #225, #276, .T. ) ;
#235 = LOCAL_TIME ( 12, 33, 48.00000000000000000, #141 ) ;
#236 = FACE_OUTER_BOUND ( 'NONE', #201, .T. ) ;
#237 = CALENDAR_DATE ( 2022, 7, 7 ) ;
#238 = ORIENTED_EDGE ( 'NONE', *, *, #243, .T. ) ;
#239 = MECHANICAL_CONTEXT ( 'NONE', #191, 'mechanical' ) ;
#240 = ORIENTED_EDGE ( 'NONE', *, *, #304, .F. ) ;
#241 = UNCERTAINTY_MEASURE_WITH_UNIT (LENGTH_MEASURE( 1.000000000000000082E-05 ), #216, 'distance_accuracy_value', 'NONE');
#242 = AXIS2_PLACEMENT_3D ( 'NONE', #296, #278, #275 ) ;
#243 = EDGE_CURVE ( 'NONE', #150, #223, #101, .T. ) ;
#244 = DIRECTION ( 'NONE',  ( 1.000000000000000000, 0.000000000000000000, -0.000000000000000000 ) ) ;
#245 = CIRCLE ( 'NONE', #135, 1.300000000000000266 ) ;
#246 = EDGE_LOOP ( 'NONE', ( #98, #117 ) ) ;
#247 = ORIENTED_EDGE ( 'NONE', *, *, #32, .F. ) ;
#248 = CARTESIAN_POINT ( 'NONE',  ( 2.000000000000000000, 2.449293598294706414E-16, 2.000000000000000000 ) ) ;
#249 = FACE_OUTER_BOUND ( 'NONE', #246, .T. ) ;
#250 = DIRECTION ( 'NONE',  ( 0.000000000000000000, 0.000000000000000000, 1.000000000000000000 ) ) ;
#251 = AXIS2_PLACEMENT_3D ( 'NONE', #132, #227, #230 ) ;
#252 = FACE_OUTER_BOUND ( 'NONE', #142, .T. ) ;
#253 = DIRECTION ( 'NONE',  ( 0.000000000000000000, 0.000000000000000000, 1.000000000000000000 ) ) ;
#254 = DIRECTION ( 'NONE',  ( 1.000000000000000000, 0.000000000000000000, 0.000000000000000000 ) ) ;
#255 = CIRCLE ( 'NONE', #169, 1.100000000000000089 ) ;
#256 = CALENDAR_DATE ( 2022, 7, 7 ) ;
#257 = CC_DESIGN_SECURITY_CLASSIFICATION ( #58, ( #297 ) ) ;
#258 = EDGE_LOOP ( 'NONE', ( #167, #91, #144, #194 ) ) ;
#259 = DATE_AND_TIME ( #67, #42 ) ;
#260 = APPROVAL_ROLE ( '' ) ;
#261 = AXIS2_PLACEMENT_3D ( 'NONE', #77, #170, #172 ) ;
#262 = PERSON_AND_ORGANIZATION_ROLE ( 'design_supplier' ) ;
#263 = LOCAL_TIME ( 12, 33, 48.00000000000000000, #279 ) ;
#264 = DATE_TIME_ROLE ( 'classification_date' ) ;
#265 = ORIENTED_EDGE ( 'NONE', *, *, #243, .F. ) ;
#266 = CC_DESIGN_DATE_AND_TIME_ASSIGNMENT ( #165, #219, ( #8 ) ) ;
#267 = DIRECTION ( 'NONE',  ( 1.000000000000000000, 0.000000000000000000, 0.000000000000000000 ) ) ;
#268 = CARTESIAN_POINT ( 'NONE',  ( 0.000000000000000000, 0.000000000000000000, 402.0000000000000000 ) ) ;
#269 = EDGE_CURVE ( 'NONE', #97, #306, #76, .T. ) ;
#270 = VERTEX_POINT ( 'NONE', #202 ) ;
#271 = EDGE_LOOP ( 'NONE', ( #265, #125, #79, #290 ) ) ;
#272 = CLOSED_SHELL ( 'NONE', ( #207, #85, #69, #178, #55, #23, #83, #78, #164 ) ) ;
#273 = ORIENTED_EDGE ( 'NONE', *, *, #110, .T. ) ;
#274 = CYLINDRICAL_SURFACE ( 'NONE', #123, 2.000000000000000000 ) ;
#275 = DIRECTION ( 'NONE',  ( 1.000000000000000000, 0.000000000000000000, 0.000000000000000000 ) ) ;
#276 = CIRCLE ( 'NONE', #145, 1.100000000000000089 ) ;
#277 = CARTESIAN_POINT ( 'NONE',  ( 0.000000000000000000, 0.000000000000000000, 0.000000000000000000 ) ) ;
#278 = DIRECTION ( 'NONE',  ( 0.000000000000000000, 0.000000000000000000, 1.000000000000000000 ) ) ;
#279 = COORDINATED_UNIVERSAL_TIME_OFFSET ( 1, 0, .AHEAD. ) ;
#280 = AXIS2_PLACEMENT_3D ( 'NONE', #183, #48, #282 ) ;
#281 = COORDINATED_UNIVERSAL_TIME_OFFSET ( 1, 0, .AHEAD. ) ;
#282 = DIRECTION ( 'NONE',  ( 1.000000000000000000, 0.000000000000000000, 0.000000000000000000 ) ) ;
#283 = APPROVAL_ROLE ( '' ) ;
#284 = APPROVAL_PERSON_ORGANIZATION ( #92, #41, #283 ) ;
#285 = ADVANCED_BREP_SHAPE_REPRESENTATION ( 'a93f', ( #185, #280 ), #100 ) ;
#286 = ORIENTED_EDGE ( 'NONE', *, *, #2, .F. ) ;
#287 = CYLINDRICAL_SURFACE ( 'NONE', #128, 1.100000000000000089 ) ;
#288 = DIRECTION ( 'NONE',  ( -0.000000000000000000, -0.000000000000000000, -1.000000000000000000 ) ) ;
#289 = DIRECTION ( 'NONE',  ( 1.000000000000000000, 0.000000000000000000, -0.000000000000000000 ) ) ;
#290 = ORIENTED_EDGE ( 'NONE', *, *, #110, .F. ) ;
#291 = CARTESIAN_POINT ( 'NONE',  ( -1.300000000000000266, 1.592040838891559342E-16, 1.999999999999989564 ) ) ;
#292 = AXIS2_PLACEMENT_3D ( 'NONE', #39, #113, #138 ) ;
#293 = DIRECTION ( 'NONE',  ( 0.000000000000000000, 0.000000000000000000, 1.000000000000000000 ) ) ;
#294 = CARTESIAN_POINT ( 'NONE',  ( -1.100000000000000089, 0.000000000000000000, 402.0000000000000000 ) ) ;
#295 = VECTOR ( 'NONE', #106, 1000.000000000000000 ) ;
#296 = CARTESIAN_POINT ( 'NONE',  ( 0.000000000000000000, 0.000000000000000000, 0.000000000000000000 ) ) ;
#297 = PRODUCT_DEFINITION_FORMATION_WITH_SPECIFIED_SOURCE ( 'LIBOVOLNÝ', '', #118, .NOT_KNOWN. ) ;
#298 = FACE_OUTER_BOUND ( 'NONE', #258, .T. ) ;
#299 = PERSON_AND_ORGANIZATION ( #89, #112 ) ;
#300 = PERSON_AND_ORGANIZATION ( #89, #112 ) ;
#301 = ORIENTED_EDGE ( 'NONE', *, *, #137, .T. ) ;
#302 = APPROVAL ( #163, 'NEURÈENÝ' ) ;
#303 = ORIENTED_EDGE ( 'NONE', *, *, #12, .F. ) ;
#304 = EDGE_CURVE ( 'NONE', #223, #150, #5, .T. ) ;
#305 = PERSON_AND_ORGANIZATION ( #89, #112 ) ;
#306 = VERTEX_POINT ( 'NONE', #294 ) ;
#307 = ORIENTED_EDGE ( 'NONE', *, *, #2, .T. ) ;
ENDSEC;
END-ISO-10303-21;
