ISO-10303-21;
HEADER;
FILE_DESCRIPTION (( 'STEP AP203' ),
    '1' );
FILE_NAME ('9c6a.STEP',
    '2022-07-07T09:37:13',
    ( '' ),
    ( '' ),
    'SwSTEP 2.0',
    'SolidWorks 2019',
    '' );
FILE_SCHEMA (( 'CONFIG_CONTROL_DESIGN' ));
ENDSEC;

DATA;
#1 = EDGE_CURVE ( 'NONE', #149, #244, #298, .T. ) ;
#2 = CIRCLE ( 'NONE', #280, 9.000000000000000000 ) ;
#3 = DIRECTION ( 'NONE',  ( 1.000000000000000000, 0.000000000000000000, 0.000000000000000000 ) ) ;
#4 = PERSON_AND_ORGANIZATION ( #140, #27 ) ;
#5 = CIRCLE ( 'NONE', #212, 0.2000000000000005107 ) ;
#6 = ORIENTED_EDGE ( 'NONE', *, *, #168, .F. ) ;
#7 = ORIENTED_EDGE ( 'NONE', *, *, #164, .F. ) ;
#8 = DATE_TIME_ROLE ( 'classification_date' ) ;
#9 = ORIENTED_EDGE ( 'NONE', *, *, #159, .F. ) ;
#10 = ORIENTED_EDGE ( 'NONE', *, *, #165, .T. ) ;
#11 = CARTESIAN_POINT ( 'NONE',  ( -9.000000000000000000, 0.000000000000000000, 107.0000000000000142 ) ) ;
#12 = PERSON_AND_ORGANIZATION_ROLE ( 'creator' ) ;
#13 = ORIENTED_EDGE ( 'NONE', *, *, #159, .T. ) ;
#14 = PERSON_AND_ORGANIZATION ( #140, #27 ) ;
#15 = CIRCLE ( 'NONE', #187, 12.00000000000000178 ) ;
#16 = DIRECTION ( 'NONE',  ( -0.000000000000000000, -0.000000000000000000, -1.000000000000000000 ) ) ;
#17 = EDGE_CURVE ( 'NONE', #89, #126, #289, .T. ) ;
#18 = CARTESIAN_POINT ( 'NONE',  ( 0.000000000000000000, 0.000000000000000000, 7.000000000000000000 ) ) ;
#19 = DIRECTION ( 'NONE',  ( -0.000000000000000000, -0.000000000000000000, -1.000000000000000000 ) ) ;
#20 = AXIS2_PLACEMENT_3D ( 'NONE', #290, #76, #265 ) ;
#21 = CARTESIAN_POINT ( 'NONE',  ( 0.000000000000000000, 0.000000000000000000, 107.0000000000000142 ) ) ;
#22 = CARTESIAN_POINT ( 'NONE',  ( 0.000000000000000000, 0.000000000000000000, 7.000000000000000000 ) ) ;
#23 = PRODUCT_DEFINITION_FORMATION_WITH_SPECIFIED_SOURCE ( 'LIBOVOLNÝ', '', #145, .NOT_KNOWN. ) ;
#24 = PLANE ( 'NONE',  #26 ) ;
#25 = CIRCLE ( 'NONE', #190, 9.000000000000000000 ) ;
#26 = AXIS2_PLACEMENT_3D ( 'NONE', #162, #233, #258 ) ;
#27 = ORGANIZATION ( 'NEURÈENÝ', 'NEURÈENÝ', '' ) ;
#28 = CC_DESIGN_APPROVAL ( #189, ( #259 ) ) ;
#29 = DIRECTION ( 'NONE',  ( 0.000000000000000000, 0.000000000000000000, 1.000000000000000000 ) ) ;
#30 = PERSON_AND_ORGANIZATION ( #140, #27 ) ;
#31 = ORIENTED_EDGE ( 'NONE', *, *, #236, .T. ) ;
#32 = ORIENTED_EDGE ( 'NONE', *, *, #168, .T. ) ;
#33 = COORDINATED_UNIVERSAL_TIME_OFFSET ( 1, 0, .AHEAD. ) ;
#34 = EDGE_LOOP ( 'NONE', ( #9, #81, #32, #57 ) ) ;
#35 = CARTESIAN_POINT ( 'NONE',  ( 0.000000000000000000, 0.000000000000000000, 7.199999999999998401 ) ) ;
#36 = ADVANCED_FACE ( 'NONE', ( #47 ), #257, .T. ) ;
#37 = CALENDAR_DATE ( 2022, 7, 7 ) ;
#38 = VERTEX_POINT ( 'NONE', #136 ) ;
#39 = APPLICATION_PROTOCOL_DEFINITION ( 'international standard', 'config_control_design', 1994, #44 ) ;
#40 = DIRECTION ( 'NONE',  ( 1.000000000000000000, 0.000000000000000000, 0.000000000000000000 ) ) ;
#41 = ADVANCED_FACE ( 'NONE', ( #283, #235 ), #24, .T. ) ;
#42 = VECTOR ( 'NONE', #121, 1000.000000000000000 ) ;
#43 = DIRECTION ( 'NONE',  ( 0.000000000000000000, 0.000000000000000000, 1.000000000000000000 ) ) ;
#44 = APPLICATION_CONTEXT ( 'configuration controlled 3d designs of mechanical parts and assemblies' ) ;
#45 = FACE_OUTER_BOUND ( 'NONE', #296, .T. ) ;
#46 = DIRECTION ( 'NONE',  ( -0.000000000000000000, -0.000000000000000000, -1.000000000000000000 ) ) ;
#47 = FACE_OUTER_BOUND ( 'NONE', #226, .T. ) ;
#48 = APPROVAL ( #147, 'NEURÈENÝ' ) ;
#49 = CIRCLE ( 'NONE', #158, 9.199999999999999289 ) ;
#50 = EDGE_CURVE ( 'NONE', #38, #156, #49, .T. ) ;
#51 = AXIS2_PLACEMENT_3D ( 'NONE', #253, #88, #179 ) ;
#52 = CARTESIAN_POINT ( 'NONE',  ( 9.199999999999999289, 0.000000000000000000, 6.999999999999999112 ) ) ;
#53 = PERSON_AND_ORGANIZATION_ROLE ( 'design_owner' ) ;
#54 = CARTESIAN_POINT ( 'NONE',  ( 0.000000000000000000, 0.000000000000000000, 7.000000000000000000 ) ) ;
#55 = CARTESIAN_POINT ( 'NONE',  ( 0.000000000000000000, 0.000000000000000000, 7.199999999999998401 ) ) ;
#56 = APPROVAL_ROLE ( '' ) ;
#57 = ORIENTED_EDGE ( 'NONE', *, *, #111, .T. ) ;
#58 = EDGE_CURVE ( 'NONE', #244, #149, #25, .T. ) ;
#59 = EDGE_LOOP ( 'NONE', ( #124, #148 ) ) ;
#60 = PERSON_AND_ORGANIZATION ( #140, #27 ) ;
#61 = VERTEX_POINT ( 'NONE', #116 ) ;
#62 = EDGE_LOOP ( 'NONE', ( #106, #175, #223, #108 ) ) ;
#63 = VERTEX_POINT ( 'NONE', #96 ) ;
#64 = CARTESIAN_POINT ( 'NONE',  ( 0.000000000000000000, 0.000000000000000000, 7.000000000000000000 ) ) ;
#65 = DIRECTION ( 'NONE',  ( -1.000000000000000000, 0.000000000000000000, 0.000000000000000000 ) ) ;
#66 = AXIS2_PLACEMENT_3D ( 'NONE', #115, #279, #209 ) ;
#67 = CYLINDRICAL_SURFACE ( 'NONE', #183, 12.00000000000000178 ) ;
#68 = DIRECTION ( 'NONE',  ( 1.000000000000000000, 0.000000000000000000, 0.000000000000000000 ) ) ;
#69 = UNCERTAINTY_MEASURE_WITH_UNIT (LENGTH_MEASURE( 1.000000000000000082E-05 ), #143, 'distance_accuracy_value', 'NONE');
#70 = EDGE_CURVE ( 'NONE', #172, #38, #5, .T. ) ;
#71 = DIRECTION ( 'NONE',  ( 1.224646799147353207E-16, 1.000000000000000000, -0.000000000000000000 ) ) ;
#72 = LOCAL_TIME ( 11, 37, 13.00000000000000000, #222 ) ;
#73 =( NAMED_UNIT ( * ) SI_UNIT ( $, .STERADIAN. ) SOLID_ANGLE_UNIT ( ) );
#74 = AXIS2_PLACEMENT_3D ( 'NONE', #122, #105, #82 ) ;
#75 = LINE ( 'NONE', #167, #42 ) ;
#76 = DIRECTION ( 'NONE',  ( 0.000000000000000000, 0.000000000000000000, 1.000000000000000000 ) ) ;
#77 = CARTESIAN_POINT ( 'NONE',  ( -9.000000000000000000, 0.000000000000000000, 107.0000000000000142 ) ) ;
#78 = CARTESIAN_POINT ( 'NONE',  ( 9.199999999999999289, 0.000000000000000000, 7.199999999999998401 ) ) ;
#79 = DATE_AND_TIME ( #144, #214 ) ;
#80 = ADVANCED_FACE ( 'NONE', ( #291 ), #284, .F. ) ;
#81 = ORIENTED_EDGE ( 'NONE', *, *, #256, .F. ) ;
#82 = DIRECTION ( 'NONE',  ( 1.000000000000000000, 0.000000000000000000, 0.000000000000000000 ) ) ;
#83 = MANIFOLD_SOLID_BREP ( 'Zaoblit1', #237 ) ;
#84 = ORIENTED_EDGE ( 'NONE', *, *, #58, .F. ) ;
#85 = ORIENTED_EDGE ( 'NONE', *, *, #50, .T. ) ;
#86 = CC_DESIGN_APPROVAL ( #120, ( #23 ) ) ;
#87 = DATE_AND_TIME ( #242, #151 ) ;
#88 = DIRECTION ( 'NONE',  ( 0.000000000000000000, 0.000000000000000000, 1.000000000000000000 ) ) ;
#89 = VERTEX_POINT ( 'NONE', #266 ) ;
#90 = DIRECTION ( 'NONE',  ( -1.000000000000000000, 0.000000000000000000, 0.000000000000000000 ) ) ;
#91 = CYLINDRICAL_SURFACE ( 'NONE', #292, 12.00000000000000178 ) ;
#92 = CARTESIAN_POINT ( 'NONE',  ( -9.000000000000000000, 0.000000000000000000, 7.199999999999998401 ) ) ;
#93 = AXIS2_PLACEMENT_3D ( 'NONE', #18, #43, #40 ) ;
#94 = DIRECTION ( 'NONE',  ( -0.000000000000000000, -0.000000000000000000, -1.000000000000000000 ) ) ;
#95 = FACE_OUTER_BOUND ( 'NONE', #34, .T. ) ;
#96 = CARTESIAN_POINT ( 'NONE',  ( -12.00000000000000178, 0.000000000000000000, 0.000000000000000000 ) ) ;
#97 = CC_DESIGN_PERSON_AND_ORGANIZATION_ASSIGNMENT ( #14, #110, ( #259 ) ) ;
#98 = AXIS2_PLACEMENT_3D ( 'NONE', #132, #297, #109 ) ;
#99 = VECTOR ( 'NONE', #274, 1000.000000000000000 ) ;
#100 = CC_DESIGN_PERSON_AND_ORGANIZATION_ASSIGNMENT ( #60, #53, ( #145 ) ) ;
#101 = APPROVAL_STATUS ( 'not_yet_approved' ) ;
#102 = PRODUCT_DEFINITION_SHAPE ( 'NONE', 'NONE',  #181 ) ;
#103 = ORIENTED_EDGE ( 'NONE', *, *, #1, .T. ) ;
#104 = DIRECTION ( 'NONE',  ( 0.000000000000000000, 0.000000000000000000, 1.000000000000000000 ) ) ;
#105 = DIRECTION ( 'NONE',  ( 0.000000000000000000, 0.000000000000000000, 1.000000000000000000 ) ) ;
#106 = ORIENTED_EDGE ( 'NONE', *, *, #287, .F. ) ;
#107 = COORDINATED_UNIVERSAL_TIME_OFFSET ( 1, 0, .AHEAD. ) ;
#108 = ORIENTED_EDGE ( 'NONE', *, *, #281, .F. ) ;
#109 = DIRECTION ( 'NONE',  ( 1.000000000000000000, 0.000000000000000000, -0.000000000000000000 ) ) ;
#110 = PERSON_AND_ORGANIZATION_ROLE ( 'classification_officer' ) ;
#111 = EDGE_CURVE ( 'NONE', #63, #128, #15, .T. ) ;
#112 = DIRECTION ( 'NONE',  ( 0.000000000000000000, 0.000000000000000000, 1.000000000000000000 ) ) ;
#113 = DIRECTION ( 'NONE',  ( 1.000000000000000000, 0.000000000000000000, 0.000000000000000000 ) ) ;
#114 = CC_DESIGN_PERSON_AND_ORGANIZATION_ASSIGNMENT ( #30, #12, ( #23 ) ) ;
#115 = CARTESIAN_POINT ( 'NONE',  ( 0.000000000000000000, 0.000000000000000000, 7.199999999999998401 ) ) ;
#116 = CARTESIAN_POINT ( 'NONE',  ( 9.000000000000000000, 1.102182119232617714E-15, 7.199999999999998401 ) ) ;
#117 = DIRECTION ( 'NONE',  ( -0.000000000000000000, -0.000000000000000000, -1.000000000000000000 ) ) ;
#118 = CC_DESIGN_PERSON_AND_ORGANIZATION_ASSIGNMENT ( #271, #131, ( #23 ) ) ;
#119 = AXIS2_PLACEMENT_3D ( 'NONE', #21, #46, #304 ) ;
#120 = APPROVAL ( #267, 'NEURÈENÝ' ) ;
#121 = DIRECTION ( 'NONE',  ( -0.000000000000000000, -0.000000000000000000, -1.000000000000000000 ) ) ;
#122 = CARTESIAN_POINT ( 'NONE',  ( 0.000000000000000000, 0.000000000000000000, 0.000000000000000000 ) ) ;
#123 = ORIENTED_EDGE ( 'NONE', *, *, #50, .F. ) ;
#124 = ORIENTED_EDGE ( 'NONE', *, *, #256, .T. ) ;
#125 = CARTESIAN_POINT ( 'NONE',  ( 12.00000000000000178, 1.469576158976824144E-15, 7.000000000000000000 ) ) ;
#126 = VERTEX_POINT ( 'NONE', #191 ) ;
#127 =( GEOMETRIC_REPRESENTATION_CONTEXT ( 3 ) GLOBAL_UNCERTAINTY_ASSIGNED_CONTEXT ( ( #69 ) ) GLOBAL_UNIT_ASSIGNED_CONTEXT ( ( #143, #241, #73 ) ) REPRESENTATION_CONTEXT ( 'NONE', 'WORKASPACE' ) );
#128 = VERTEX_POINT ( 'NONE', #294 ) ;
#129 = DATE_AND_TIME ( #37, #72 ) ;
#130 = ORIENTED_EDGE ( 'NONE', *, *, #17, .F. ) ;
#131 = PERSON_AND_ORGANIZATION_ROLE ( 'design_supplier' ) ;
#132 = CARTESIAN_POINT ( 'NONE',  ( 0.000000000000000000, 0.000000000000000000, 107.0000000000000142 ) ) ;
#133 = DESIGN_CONTEXT ( 'detailed design', #229, 'design' ) ;
#134 = CYLINDRICAL_SURFACE ( 'NONE', #119, 9.000000000000000000 ) ;
#135 = DIRECTION ( 'NONE',  ( -0.000000000000000000, -0.000000000000000000, -1.000000000000000000 ) ) ;
#136 = CARTESIAN_POINT ( 'NONE',  ( -9.199999999999999289, 1.126675055215564822E-15, 6.999999999999999112 ) ) ;
#137 = ORIENTED_EDGE ( 'NONE', *, *, #58, .T. ) ;
#138 = VECTOR ( 'NONE', #19, 1000.000000000000000 ) ;
#139 = DIRECTION ( 'NONE',  ( 0.000000000000000000, 0.000000000000000000, 1.000000000000000000 ) ) ;
#140 = PERSON ( 'NEURÈENÝ', 'NEURÈENÝ', 'NEURÈENÝ', ('NEURÈENÝ'), ('NEURÈENÝ'), ('NEURÈENÝ') ) ;
#141 = CIRCLE ( 'NONE', #188, 12.00000000000000178 ) ;
#142 = DIRECTION ( 'NONE',  ( 1.000000000000000000, 0.000000000000000000, 0.000000000000000000 ) ) ;
#143 =( LENGTH_UNIT ( ) NAMED_UNIT ( * ) SI_UNIT ( .MILLI., .METRE. ) );
#144 = CALENDAR_DATE ( 2022, 7, 7 ) ;
#145 = PRODUCT ( '9c6a', '9c6a', '', ( #176 ) ) ;
#146 = DIRECTION ( 'NONE',  ( 0.000000000000000000, 0.000000000000000000, 1.000000000000000000 ) ) ;
#147 = APPROVAL_STATUS ( 'not_yet_approved' ) ;
#148 = ORIENTED_EDGE ( 'NONE', *, *, #17, .T. ) ;
#149 = VERTEX_POINT ( 'NONE', #77 ) ;
#150 = APPROVAL_ROLE ( '' ) ;
#151 = LOCAL_TIME ( 11, 37, 13.00000000000000000, #252 ) ;
#152 = APPLICATION_PROTOCOL_DEFINITION ( 'international standard', 'config_control_design', 1994, #229 ) ;
#153 = ORIENTED_EDGE ( 'NONE', *, *, #264, .T. ) ;
#154 = PERSON_AND_ORGANIZATION_ROLE ( 'creator' ) ;
#155 = FACE_OUTER_BOUND ( 'NONE', #196, .T. ) ;
#156 = VERTEX_POINT ( 'NONE', #52 ) ;
#157 = PLANE ( 'NONE',  #98 ) ;
#158 = AXIS2_PLACEMENT_3D ( 'NONE', #22, #117, #68 ) ;
#159 = EDGE_CURVE ( 'NONE', #89, #128, #245, .T. ) ;
#160 = CIRCLE ( 'NONE', #307, 9.000000000000000000 ) ;
#161 = CARTESIAN_POINT ( 'NONE',  ( -12.00000000000000178, 0.000000000000000000, 7.000000000000000000 ) ) ;
#162 = CARTESIAN_POINT ( 'NONE',  ( 0.000000000000000000, 0.000000000000000000, 7.000000000000000000 ) ) ;
#163 = LOCAL_TIME ( 11, 37, 13.00000000000000000, #107 ) ;
#164 = EDGE_CURVE ( 'NONE', #244, #61, #75, .T. ) ;
#165 = EDGE_CURVE ( 'NONE', #61, #172, #2, .T. ) ;
#166 = VECTOR ( 'NONE', #220, 1000.000000000000000 ) ;
#167 = CARTESIAN_POINT ( 'NONE',  ( 9.000000000000000000, 1.102182119232617714E-15, 107.0000000000000142 ) ) ;
#168 = EDGE_CURVE ( 'NONE', #126, #63, #182, .T. ) ;
#169 = EDGE_LOOP ( 'NONE', ( #130, #13, #153, #6 ) ) ;
#170 = CARTESIAN_POINT ( 'NONE',  ( 0.000000000000000000, 0.000000000000000000, 0.000000000000000000 ) ) ;
#171 = DATE_AND_TIME ( #225, #177 ) ;
#172 = VERTEX_POINT ( 'NONE', #92 ) ;
#173 = ORIENTED_EDGE ( 'NONE', *, *, #287, .T. ) ;
#174 = DATE_TIME_ROLE ( 'creation_date' ) ;
#175 = ORIENTED_EDGE ( 'NONE', *, *, #70, .T. ) ;
#176 = MECHANICAL_CONTEXT ( 'NONE', #44, 'mechanical' ) ;
#177 = LOCAL_TIME ( 11, 37, 13.00000000000000000, #33 ) ;
#178 = PERSON_AND_ORGANIZATION ( #140, #27 ) ;
#179 = DIRECTION ( 'NONE',  ( 1.000000000000000000, 0.000000000000000000, -0.000000000000000000 ) ) ;
#180 = PLANE ( 'NONE',  #51 ) ;
#181 = PRODUCT_DEFINITION ( 'NEZNÁMÝ', '', #23, #133 ) ;
#182 = LINE ( 'NONE', #161, #138 ) ;
#183 = AXIS2_PLACEMENT_3D ( 'NONE', #254, #16, #90 ) ;
#184 = DIRECTION ( 'NONE',  ( -1.000000000000000000, 0.000000000000000000, 0.000000000000000000 ) ) ;
#185 = CARTESIAN_POINT ( 'NONE',  ( -9.199999999999999289, 1.126675055215564822E-15, 7.199999999999998401 ) ) ;
#186 = AXIS2_PLACEMENT_3D ( 'NONE', #303, #94, #184 ) ;
#187 = AXIS2_PLACEMENT_3D ( 'NONE', #170, #146, #262 ) ;
#188 = AXIS2_PLACEMENT_3D ( 'NONE', #301, #112, #113 ) ;
#189 = APPROVAL ( #101, 'NEURÈENÝ' ) ;
#190 = AXIS2_PLACEMENT_3D ( 'NONE', #211, #207, #305 ) ;
#191 = CARTESIAN_POINT ( 'NONE',  ( -12.00000000000000178, 0.000000000000000000, 7.000000000000000000 ) ) ;
#192 = DIRECTION ( 'NONE',  ( 0.000000000000000000, -1.000000000000000000, 0.000000000000000000 ) ) ;
#193 = COORDINATED_UNIVERSAL_TIME_OFFSET ( 1, 0, .AHEAD. ) ;
#194 = CIRCLE ( 'NONE', #93, 12.00000000000000178 ) ;
#195 = ORIENTED_EDGE ( 'NONE', *, *, #1, .F. ) ;
#196 = EDGE_LOOP ( 'NONE', ( #247, #200 ) ) ;
#197 = DIRECTION ( 'NONE',  ( 0.000000000000000000, 0.000000000000000000, -1.000000000000000000 ) ) ;
#198 = PERSON_AND_ORGANIZATION ( #140, #27 ) ;
#199 = ADVANCED_FACE ( 'NONE', ( #45 ), #134, .T. ) ;
#200 = ORIENTED_EDGE ( 'NONE', *, *, #264, .F. ) ;
#201 = EDGE_LOOP ( 'NONE', ( #243, #268, #269, #123 ) ) ;
#202 = CALENDAR_DATE ( 2022, 7, 7 ) ;
#203 = DIRECTION ( 'NONE',  ( -0.000000000000000000, -0.000000000000000000, -1.000000000000000000 ) ) ;
#204 = FACE_OUTER_BOUND ( 'NONE', #273, .T. ) ;
#205 = FACE_OUTER_BOUND ( 'NONE', #62, .T. ) ;
#206 = AXIS2_PLACEMENT_3D ( 'NONE', #55, #104, #142 ) ;
#207 = DIRECTION ( 'NONE',  ( 0.000000000000000000, 0.000000000000000000, 1.000000000000000000 ) ) ;
#208 = CIRCLE ( 'NONE', #234, 9.199999999999999289 ) ;
#209 = DIRECTION ( 'NONE',  ( 1.000000000000000000, 0.000000000000000000, 0.000000000000000000 ) ) ;
#210 = DIRECTION ( 'NONE',  ( 1.000000000000000000, 0.000000000000000000, 0.000000000000000000 ) ) ;
#211 = CARTESIAN_POINT ( 'NONE',  ( 0.000000000000000000, 0.000000000000000000, 107.0000000000000142 ) ) ;
#212 = AXIS2_PLACEMENT_3D ( 'NONE', #185, #71, #216 ) ;
#213 = TOROIDAL_SURFACE ( 'NONE', #66, 9.199999999999999289, 0.2000000000000000111 ) ;
#214 = LOCAL_TIME ( 11, 37, 13.00000000000000000, #193 ) ;
#215 = ADVANCED_FACE ( 'NONE', ( #205 ), #213, .F. ) ;
#216 = DIRECTION ( 'NONE',  ( -1.000000000000000000, 1.224646799147353207E-16, 0.000000000000000000 ) ) ;
#217 = APPROVAL_DATE_TIME ( #79, #48 ) ;
#218 = ORIENTED_EDGE ( 'NONE', *, *, #164, .T. ) ;
#219 = EDGE_LOOP ( 'NONE', ( #31, #85 ) ) ;
#220 = DIRECTION ( 'NONE',  ( -0.000000000000000000, -0.000000000000000000, -1.000000000000000000 ) ) ;
#221 = CC_DESIGN_DATE_AND_TIME_ASSIGNMENT ( #129, #8, ( #259 ) ) ;
#222 = COORDINATED_UNIVERSAL_TIME_OFFSET ( 1, 0, .AHEAD. ) ;
#223 = ORIENTED_EDGE ( 'NONE', *, *, #236, .F. ) ;
#224 = ORIENTED_EDGE ( 'NONE', *, *, #285, .F. ) ;
#225 = CALENDAR_DATE ( 2022, 7, 7 ) ;
#226 = EDGE_LOOP ( 'NONE', ( #7, #195, #251, #173 ) ) ;
#227 = DIRECTION ( 'NONE',  ( 1.000000000000000000, 0.000000000000000000, 0.000000000000000000 ) ) ;
#228 = SECURITY_CLASSIFICATION_LEVEL ( 'unclassified' ) ;
#229 = APPLICATION_CONTEXT ( 'configuration controlled 3d designs of mechanical parts and assemblies' ) ;
#230 = ADVANCED_FACE ( 'NONE', ( #95 ), #91, .T. ) ;
#231 = CARTESIAN_POINT ( 'NONE',  ( 0.000000000000000000, 0.000000000000000000, 7.000000000000000000 ) ) ;
#232 = ADVANCED_FACE ( 'NONE', ( #282 ), #67, .T. ) ;
#233 = DIRECTION ( 'NONE',  ( 0.000000000000000000, 0.000000000000000000, 1.000000000000000000 ) ) ;
#234 = AXIS2_PLACEMENT_3D ( 'NONE', #64, #203, #278 ) ;
#235 = FACE_OUTER_BOUND ( 'NONE', #59, .T. ) ;
#236 = EDGE_CURVE ( 'NONE', #156, #38, #208, .T. ) ;
#237 = CLOSED_SHELL ( 'NONE', ( #215, #199, #232, #230, #41, #238, #36, #275, #80 ) ) ;
#238 = ADVANCED_FACE ( 'NONE', ( #155 ), #180, .F. ) ;
#239 = CC_DESIGN_SECURITY_CLASSIFICATION ( #259, ( #23 ) ) ;
#240 = CARTESIAN_POINT ( 'NONE',  ( 0.000000000000000000, 0.000000000000000000, 7.199999999999998401 ) ) ;
#241 =( NAMED_UNIT ( * ) PLANE_ANGLE_UNIT ( ) SI_UNIT ( $, .RADIAN. ) );
#242 = CALENDAR_DATE ( 2022, 7, 7 ) ;
#243 = ORIENTED_EDGE ( 'NONE', *, *, #70, .F. ) ;
#244 = VERTEX_POINT ( 'NONE', #277 ) ;
#245 = LINE ( 'NONE', #125, #166 ) ;
#246 = APPROVAL_DATE_TIME ( #171, #120 ) ;
#247 = ORIENTED_EDGE ( 'NONE', *, *, #111, .F. ) ;
#248 = LINE ( 'NONE', #11, #99 ) ;
#249 = PERSON_AND_ORGANIZATION ( #140, #27 ) ;
#250 = APPROVAL_PERSON_ORGANIZATION ( #178, #48, #150 ) ;
#251 = ORIENTED_EDGE ( 'NONE', *, *, #285, .T. ) ;
#252 = COORDINATED_UNIVERSAL_TIME_OFFSET ( 1, 0, .AHEAD. ) ;
#253 = CARTESIAN_POINT ( 'NONE',  ( 0.000000000000000000, 0.000000000000000000, 0.000000000000000000 ) ) ;
#254 = CARTESIAN_POINT ( 'NONE',  ( 0.000000000000000000, 0.000000000000000000, 7.000000000000000000 ) ) ;
#255 = ADVANCED_BREP_SHAPE_REPRESENTATION ( '9c6a', ( #83, #74 ), #127 ) ;
#256 = EDGE_CURVE ( 'NONE', #126, #89, #194, .T. ) ;
#257 = CYLINDRICAL_SURFACE ( 'NONE', #186, 9.000000000000000000 ) ;
#258 = DIRECTION ( 'NONE',  ( 1.000000000000000000, 0.000000000000000000, -0.000000000000000000 ) ) ;
#259 = SECURITY_CLASSIFICATION ( '', '', #228 ) ;
#260 = CIRCLE ( 'NONE', #263, 0.1999999999999996503 ) ;
#261 = CC_DESIGN_DATE_AND_TIME_ASSIGNMENT ( #87, #174, ( #181 ) ) ;
#262 = DIRECTION ( 'NONE',  ( 1.000000000000000000, 0.000000000000000000, 0.000000000000000000 ) ) ;
#263 = AXIS2_PLACEMENT_3D ( 'NONE', #78, #192, #197 ) ;
#264 = EDGE_CURVE ( 'NONE', #128, #63, #141, .T. ) ;
#265 = DIRECTION ( 'NONE',  ( 1.000000000000000000, 0.000000000000000000, 0.000000000000000000 ) ) ;
#266 = CARTESIAN_POINT ( 'NONE',  ( 12.00000000000000178, 1.469576158976824144E-15, 7.000000000000000000 ) ) ;
#267 = APPROVAL_STATUS ( 'not_yet_approved' ) ;
#268 = ORIENTED_EDGE ( 'NONE', *, *, #165, .F. ) ;
#269 = ORIENTED_EDGE ( 'NONE', *, *, #281, .T. ) ;
#270 = DIRECTION ( 'NONE',  ( 0.000000000000000000, 0.000000000000000000, 1.000000000000000000 ) ) ;
#271 = PERSON_AND_ORGANIZATION ( #140, #27 ) ;
#272 = APPROVAL_PERSON_ORGANIZATION ( #4, #120, #56 ) ;
#273 = EDGE_LOOP ( 'NONE', ( #103, #137 ) ) ;
#274 = DIRECTION ( 'NONE',  ( -0.000000000000000000, -0.000000000000000000, -1.000000000000000000 ) ) ;
#275 = ADVANCED_FACE ( 'NONE', ( #204 ), #157, .T. ) ;
#276 = SHAPE_DEFINITION_REPRESENTATION ( #102, #255 ) ;
#277 = CARTESIAN_POINT ( 'NONE',  ( 9.000000000000000000, 1.102182119232617714E-15, 107.0000000000000142 ) ) ;
#278 = DIRECTION ( 'NONE',  ( 1.000000000000000000, 0.000000000000000000, 0.000000000000000000 ) ) ;
#279 = DIRECTION ( 'NONE',  ( 0.000000000000000000, 0.000000000000000000, 1.000000000000000000 ) ) ;
#280 = AXIS2_PLACEMENT_3D ( 'NONE', #240, #29, #3 ) ;
#281 = EDGE_CURVE ( 'NONE', #61, #156, #260, .T. ) ;
#282 = FACE_OUTER_BOUND ( 'NONE', #169, .T. ) ;
#283 = FACE_BOUND ( 'NONE', #219, .T. ) ;
#284 = TOROIDAL_SURFACE ( 'NONE', #206, 9.199999999999999289, 0.2000000000000000111 ) ;
#285 = EDGE_CURVE ( 'NONE', #149, #172, #248, .T. ) ;
#286 = AXIS2_PLACEMENT_3D ( 'NONE', #54, #139, #210 ) ;
#287 = EDGE_CURVE ( 'NONE', #172, #61, #160, .T. ) ;
#288 = CC_DESIGN_APPROVAL ( #48, ( #181 ) ) ;
#289 = CIRCLE ( 'NONE', #286, 12.00000000000000178 ) ;
#290 = CARTESIAN_POINT ( 'NONE',  ( 0.000000000000000000, 0.000000000000000000, 107.0000000000000142 ) ) ;
#291 = FACE_OUTER_BOUND ( 'NONE', #201, .T. ) ;
#292 = AXIS2_PLACEMENT_3D ( 'NONE', #231, #135, #65 ) ;
#293 = APPROVAL_ROLE ( '' ) ;
#294 = CARTESIAN_POINT ( 'NONE',  ( 12.00000000000000178, 1.469576158976824144E-15, 0.000000000000000000 ) ) ;
#295 = DATE_AND_TIME ( #202, #163 ) ;
#296 = EDGE_LOOP ( 'NONE', ( #84, #218, #10, #224 ) ) ;
#297 = DIRECTION ( 'NONE',  ( 0.000000000000000000, 0.000000000000000000, 1.000000000000000000 ) ) ;
#298 = CIRCLE ( 'NONE', #20, 9.000000000000000000 ) ;
#299 = PRODUCT_RELATED_PRODUCT_CATEGORY ( 'detail', '', ( #145 ) ) ;
#300 = APPROVAL_DATE_TIME ( #295, #189 ) ;
#301 = CARTESIAN_POINT ( 'NONE',  ( 0.000000000000000000, 0.000000000000000000, 0.000000000000000000 ) ) ;
#302 = APPROVAL_PERSON_ORGANIZATION ( #198, #189, #293 ) ;
#303 = CARTESIAN_POINT ( 'NONE',  ( 0.000000000000000000, 0.000000000000000000, 107.0000000000000142 ) ) ;
#304 = DIRECTION ( 'NONE',  ( -1.000000000000000000, 0.000000000000000000, 0.000000000000000000 ) ) ;
#305 = DIRECTION ( 'NONE',  ( 1.000000000000000000, 0.000000000000000000, 0.000000000000000000 ) ) ;
#306 = CC_DESIGN_PERSON_AND_ORGANIZATION_ASSIGNMENT ( #249, #154, ( #181 ) ) ;
#307 = AXIS2_PLACEMENT_3D ( 'NONE', #35, #270, #227 ) ;
ENDSEC;
END-ISO-10303-21;
