ISO-10303-21;
HEADER;
FILE_DESCRIPTION (( 'STEP AP203' ),
    '1' );
FILE_NAME ('68ad.STEP',
    '2023-02-12T11:18:00',
    ( '' ),
    ( '' ),
    'SwSTEP 2.0',
    'SolidWorks 2019',
    '' );
FILE_SCHEMA (( 'CONFIG_CONTROL_DESIGN' ));
ENDSEC;

DATA;
#1 = CARTESIAN_POINT ( 'NONE',  ( 0.000000000000000000, 0.000000000000000000, 0.000000000000000000 ) ) ;
#2 = CIRCLE ( 'NONE', #155, 8.000000000000000000 ) ;
#3 = CALENDAR_DATE ( 2023, 12, 2 ) ;
#4 = AXIS2_PLACEMENT_3D ( 'NONE', #184, #11, #166 ) ;
#5 = DATE_AND_TIME ( #83, #156 ) ;
#6 = AXIS2_PLACEMENT_3D ( 'NONE', #151, #250, #132 ) ;
#7 = ORIENTED_EDGE ( 'NONE', *, *, #182, .T. ) ;
#8 = PERSON_AND_ORGANIZATION ( #105, #65 ) ;
#9 = VERTEX_POINT ( 'NONE', #222 ) ;
#10 = LINE ( 'NONE', #103, #86 ) ;
#11 = DIRECTION ( 'NONE',  ( -0.000000000000000000, -0.000000000000000000, -1.000000000000000000 ) ) ;
#12 = FACE_OUTER_BOUND ( 'NONE', #124, .T. ) ;
#13 = CC_DESIGN_PERSON_AND_ORGANIZATION_ASSIGNMENT ( #199, #74, ( #21 ) ) ;
#14 = CIRCLE ( 'NONE', #26, 8.000000000000000000 ) ;
#15 = DIRECTION ( 'NONE',  ( 1.000000000000000000, 0.000000000000000000, 0.000000000000000000 ) ) ;
#16 = APPROVAL ( #200, 'NEURÈENÝ' ) ;
#17 = ORIENTED_EDGE ( 'NONE', *, *, #197, .F. ) ;
#18 = DIRECTION ( 'NONE',  ( 1.000000000000000000, 0.000000000000000000, -0.000000000000000000 ) ) ;
#19 = CC_DESIGN_SECURITY_CLASSIFICATION ( #21, ( #196 ) ) ;
#20 = AXIS2_PLACEMENT_3D ( 'NONE', #205, #190, #133 ) ;
#21 = SECURITY_CLASSIFICATION ( '', '', #213 ) ;
#22 = COORDINATED_UNIVERSAL_TIME_OFFSET ( 1, 0, .AHEAD. ) ;
#23 = EDGE_CURVE ( 'NONE', #125, #71, #82, .T. ) ;
#24 = DATE_AND_TIME ( #3, #138 ) ;
#25 = ORIENTED_EDGE ( 'NONE', *, *, #23, .T. ) ;
#26 = AXIS2_PLACEMENT_3D ( 'NONE', #115, #152, #244 ) ;
#27 = DIRECTION ( 'NONE',  ( -1.000000000000000000, 0.000000000000000000, 0.000000000000000000 ) ) ;
#28 = EDGE_CURVE ( 'NONE', #46, #217, #2, .T. ) ;
#29 = CARTESIAN_POINT ( 'NONE',  ( -5.100000000000001421, 0.000000000000000000, 630.0000000000000000 ) ) ;
#30 = ORIENTED_EDGE ( 'NONE', *, *, #109, .T. ) ;
#31 = VERTEX_POINT ( 'NONE', #29 ) ;
#32 = PRODUCT_DEFINITION ( 'NEZNÁMÝ', '', #196, #174 ) ;
#33 = COORDINATED_UNIVERSAL_TIME_OFFSET ( 1, 0, .AHEAD. ) ;
#34 = PLANE ( 'NONE',  #6 ) ;
#35 = CARTESIAN_POINT ( 'NONE',  ( 0.000000000000000000, 0.000000000000000000, 5.000000000000000000 ) ) ;
#36 = DATE_AND_TIME ( #69, #127 ) ;
#37 = CARTESIAN_POINT ( 'NONE',  ( 0.000000000000000000, 0.000000000000000000, 5.000000000000000000 ) ) ;
#38 = DIRECTION ( 'NONE',  ( 0.000000000000000000, 0.000000000000000000, 1.000000000000000000 ) ) ;
#39 = APPLICATION_PROTOCOL_DEFINITION ( 'international standard', 'config_control_design', 1994, #110 ) ;
#40 = DATE_TIME_ROLE ( 'classification_date' ) ;
#41 = EDGE_CURVE ( 'NONE', #217, #46, #59, .T. ) ;
#42 = CYLINDRICAL_SURFACE ( 'NONE', #4, 5.100000000000001421 ) ;
#43 = CC_DESIGN_PERSON_AND_ORGANIZATION_ASSIGNMENT ( #214, #177, ( #196 ) ) ;
#44 = APPROVAL_PERSON_ORGANIZATION ( #139, #16, #211 ) ;
#45 = EDGE_CURVE ( 'NONE', #75, #125, #79, .T. ) ;
#46 = VERTEX_POINT ( 'NONE', #114 ) ;
#47 = CC_DESIGN_APPROVAL ( #158, ( #32 ) ) ;
#48 = CARTESIAN_POINT ( 'NONE',  ( 0.000000000000000000, 0.000000000000000000, 0.000000000000000000 ) ) ;
#49 = PRODUCT_DEFINITION_SHAPE ( 'NONE', 'NONE',  #32 ) ;
#50 = MECHANICAL_CONTEXT ( 'NONE', #110, 'mechanical' ) ;
#51 = CARTESIAN_POINT ( 'NONE',  ( 5.100000000000001421, 6.245698675651502811E-16, 630.0000000000000000 ) ) ;
#52 = ORIENTED_EDGE ( 'NONE', *, *, #97, .F. ) ;
#53 = EDGE_CURVE ( 'NONE', #9, #229, #253, .T. ) ;
#54 = AXIS2_PLACEMENT_3D ( 'NONE', #203, #91, #243 ) ;
#55 = FACE_OUTER_BOUND ( 'NONE', #162, .T. ) ;
#56 = CARTESIAN_POINT ( 'NONE',  ( 0.000000000000000000, 0.000000000000000000, 630.0000000000000000 ) ) ;
#57 = APPROVAL_DATE_TIME ( #193, #230 ) ;
#58 = CC_DESIGN_PERSON_AND_ORGANIZATION_ASSIGNMENT ( #123, #67, ( #32 ) ) ;
#59 = CIRCLE ( 'NONE', #175, 8.000000000000000000 ) ;
#60 = AXIS2_PLACEMENT_3D ( 'NONE', #37, #226, #18 ) ;
#61 = DIRECTION ( 'NONE',  ( -0.000000000000000000, -0.000000000000000000, -1.000000000000000000 ) ) ;
#62 = PERSON_AND_ORGANIZATION_ROLE ( 'design_supplier' ) ;
#63 = ADVANCED_FACE ( 'NONE', ( #12 ), #129, .T. ) ;
#64 = DATE_AND_TIME ( #85, #90 ) ;
#65 = ORGANIZATION ( 'NEURÈENÝ', 'NEURÈENÝ', '' ) ;
#66 = DIRECTION ( 'NONE',  ( -0.000000000000000000, -0.000000000000000000, -1.000000000000000000 ) ) ;
#67 = PERSON_AND_ORGANIZATION_ROLE ( 'creator' ) ;
#68 = EDGE_LOOP ( 'NONE', ( #241, #7, #171, #17 ) ) ;
#69 = CALENDAR_DATE ( 2023, 12, 2 ) ;
#70 = AXIS2_PLACEMENT_3D ( 'NONE', #208, #93, #167 ) ;
#71 = VERTEX_POINT ( 'NONE', #246 ) ;
#72 = CARTESIAN_POINT ( 'NONE',  ( 5.100000000000001421, 6.245698675651502811E-16, 5.000000000000000000 ) ) ;
#73 = DIRECTION ( 'NONE',  ( -0.000000000000000000, -0.000000000000000000, -1.000000000000000000 ) ) ;
#74 = PERSON_AND_ORGANIZATION_ROLE ( 'classification_officer' ) ;
#75 = VERTEX_POINT ( 'NONE', #51 ) ;
#76 = ORIENTED_EDGE ( 'NONE', *, *, #41, .F. ) ;
#77 = ORIENTED_EDGE ( 'NONE', *, *, #89, .F. ) ;
#78 = CARTESIAN_POINT ( 'NONE',  ( 0.000000000000000000, 0.000000000000000000, 630.0000000000000000 ) ) ;
#79 = LINE ( 'NONE', #192, #204 ) ;
#80 = ADVANCED_FACE ( 'NONE', ( #113 ), #220, .F. ) ;
#81 = DIRECTION ( 'NONE',  ( 0.000000000000000000, 0.000000000000000000, 1.000000000000000000 ) ) ;
#82 = CIRCLE ( 'NONE', #20, 5.100000000000001421 ) ;
#83 = CALENDAR_DATE ( 2023, 12, 2 ) ;
#84 = UNCERTAINTY_MEASURE_WITH_UNIT (LENGTH_MEASURE( 1.000000000000000082E-05 ), #154, 'distance_accuracy_value', 'NONE');
#85 = CALENDAR_DATE ( 2023, 12, 2 ) ;
#86 = VECTOR ( 'NONE', #61, 1000.000000000000000 ) ;
#87 = ORIENTED_EDGE ( 'NONE', *, *, #45, .T. ) ;
#88 = COORDINATED_UNIVERSAL_TIME_OFFSET ( 1, 0, .AHEAD. ) ;
#89 = EDGE_CURVE ( 'NONE', #229, #9, #14, .T. ) ;
#90 = LOCAL_TIME ( 12, 18, 0.000000000000000000, #231 ) ;
#91 = DIRECTION ( 'NONE',  ( 0.000000000000000000, 0.000000000000000000, 1.000000000000000000 ) ) ;
#92 = DIRECTION ( 'NONE',  ( 0.000000000000000000, 0.000000000000000000, 1.000000000000000000 ) ) ;
#93 = DIRECTION ( 'NONE',  ( 0.000000000000000000, 0.000000000000000000, 1.000000000000000000 ) ) ;
#94 = DIRECTION ( 'NONE',  ( -0.000000000000000000, -0.000000000000000000, -1.000000000000000000 ) ) ;
#95 = AXIS2_PLACEMENT_3D ( 'NONE', #56, #169, #100 ) ;
#96 = ORIENTED_EDGE ( 'NONE', *, *, #137, .T. ) ;
#97 = EDGE_CURVE ( 'NONE', #71, #125, #101, .T. ) ;
#98 = DIRECTION ( 'NONE',  ( -0.000000000000000000, -0.000000000000000000, -1.000000000000000000 ) ) ;
#99 = CARTESIAN_POINT ( 'NONE',  ( -8.000000000000000000, 0.000000000000000000, 0.000000000000000000 ) ) ;
#100 = DIRECTION ( 'NONE',  ( -1.000000000000000000, 0.000000000000000000, 0.000000000000000000 ) ) ;
#101 = CIRCLE ( 'NONE', #234, 5.100000000000001421 ) ;
#102 = CC_DESIGN_DATE_AND_TIME_ASSIGNMENT ( #5, #121, ( #32 ) ) ;
#103 = CARTESIAN_POINT ( 'NONE',  ( -5.100000000000001421, 0.000000000000000000, 630.0000000000000000 ) ) ;
#104 = DIRECTION ( 'NONE',  ( 0.000000000000000000, 0.000000000000000000, 1.000000000000000000 ) ) ;
#105 = PERSON ( 'NEURÈENÝ', 'NEURÈENÝ', 'NEURÈENÝ', ('NEURÈENÝ'), ('NEURÈENÝ'), ('NEURÈENÝ') ) ;
#106 = APPROVAL_ROLE ( '' ) ;
#107 = COORDINATED_UNIVERSAL_TIME_OFFSET ( 1, 0, .AHEAD. ) ;
#108 = APPLICATION_PROTOCOL_DEFINITION ( 'international standard', 'config_control_design', 1994, #131 ) ;
#109 = EDGE_CURVE ( 'NONE', #31, #71, #10, .T. ) ;
#110 = APPLICATION_CONTEXT ( 'configuration controlled 3d designs of mechanical parts and assemblies' ) ;
#111 = ADVANCED_FACE ( 'NONE', ( #176 ), #163, .T. ) ;
#112 = FACE_OUTER_BOUND ( 'NONE', #150, .T. ) ;
#113 = FACE_OUTER_BOUND ( 'NONE', #238, .T. ) ;
#114 = CARTESIAN_POINT ( 'NONE',  ( 8.000000000000000000, 9.797174393178825657E-16, 5.000000000000000000 ) ) ;
#115 = CARTESIAN_POINT ( 'NONE',  ( 0.000000000000000000, 0.000000000000000000, 0.000000000000000000 ) ) ;
#116 = VECTOR ( 'NONE', #170, 1000.000000000000000 ) ;
#117 = DIRECTION ( 'NONE',  ( 0.000000000000000000, 0.000000000000000000, 1.000000000000000000 ) ) ;
#118 = FACE_OUTER_BOUND ( 'NONE', #165, .T. ) ;
#119 = APPROVAL_STATUS ( 'not_yet_approved' ) ;
#120 = LOCAL_TIME ( 12, 18, 0.000000000000000000, #33 ) ;
#121 = DATE_TIME_ROLE ( 'creation_date' ) ;
#122 = CC_DESIGN_DATE_AND_TIME_ASSIGNMENT ( #36, #40, ( #21 ) ) ;
#123 = PERSON_AND_ORGANIZATION ( #105, #65 ) ;
#124 = EDGE_LOOP ( 'NONE', ( #209, #87, #25, #186 ) ) ;
#125 = VERTEX_POINT ( 'NONE', #72 ) ;
#126 = ORIENTED_EDGE ( 'NONE', *, *, #41, .T. ) ;
#127 = LOCAL_TIME ( 12, 18, 0.000000000000000000, #88 ) ;
#128 = CARTESIAN_POINT ( 'NONE',  ( 0.000000000000000000, 0.000000000000000000, 5.000000000000000000 ) ) ;
#129 = CYLINDRICAL_SURFACE ( 'NONE', #95, 5.100000000000001421 ) ;
#130 =( NAMED_UNIT ( * ) PLANE_ANGLE_UNIT ( ) SI_UNIT ( $, .RADIAN. ) );
#131 = APPLICATION_CONTEXT ( 'configuration controlled 3d designs of mechanical parts and assemblies' ) ;
#132 = DIRECTION ( 'NONE',  ( 1.000000000000000000, 0.000000000000000000, -0.000000000000000000 ) ) ;
#133 = DIRECTION ( 'NONE',  ( 1.000000000000000000, 0.000000000000000000, 0.000000000000000000 ) ) ;
#134 = CARTESIAN_POINT ( 'NONE',  ( 0.000000000000000000, 0.000000000000000000, 5.000000000000000000 ) ) ;
#135 = LINE ( 'NONE', #188, #116 ) ;
#136 = LINE ( 'NONE', #191, #145 ) ;
#137 = EDGE_CURVE ( 'NONE', #75, #31, #221, .T. ) ;
#138 = LOCAL_TIME ( 12, 18, 0.000000000000000000, #22 ) ;
#139 = PERSON_AND_ORGANIZATION ( #105, #65 ) ;
#140 = ORIENTED_EDGE ( 'NONE', *, *, #97, .T. ) ;
#141 = AXIS2_PLACEMENT_3D ( 'NONE', #48, #143, #225 ) ;
#142 = MANIFOLD_SOLID_BREP ( 'Pøidat vysunutím3', #216 ) ;
#143 = DIRECTION ( 'NONE',  ( 0.000000000000000000, 0.000000000000000000, 1.000000000000000000 ) ) ;
#144 = CC_DESIGN_PERSON_AND_ORGANIZATION_ASSIGNMENT ( #8, #62, ( #196 ) ) ;
#145 = VECTOR ( 'NONE', #98, 1000.000000000000000 ) ;
#146 = ORIENTED_EDGE ( 'NONE', *, *, #28, .T. ) ;
#147 = ORIENTED_EDGE ( 'NONE', *, *, #197, .T. ) ;
#148 = FACE_BOUND ( 'NONE', #252, .T. ) ;
#149 = ADVANCED_FACE ( 'NONE', ( #160 ), #235, .T. ) ;
#150 = EDGE_LOOP ( 'NONE', ( #242, #227, #30, #140 ) ) ;
#151 = CARTESIAN_POINT ( 'NONE',  ( 0.000000000000000000, 0.000000000000000000, 630.0000000000000000 ) ) ;
#152 = DIRECTION ( 'NONE',  ( 0.000000000000000000, 0.000000000000000000, 1.000000000000000000 ) ) ;
#153 = SHAPE_DEFINITION_REPRESENTATION ( #49, #254 ) ;
#154 =( LENGTH_UNIT ( ) NAMED_UNIT ( * ) SI_UNIT ( .MILLI., .METRE. ) );
#155 = AXIS2_PLACEMENT_3D ( 'NONE', #128, #92, #185 ) ;
#156 = LOCAL_TIME ( 12, 18, 0.000000000000000000, #107 ) ;
#157 = APPROVAL_DATE_TIME ( #24, #158 ) ;
#158 = APPROVAL ( #119, 'NEURÈENÝ' ) ;
#159 = APPROVAL_DATE_TIME ( #64, #16 ) ;
#160 = FACE_OUTER_BOUND ( 'NONE', #68, .T. ) ;
#161 = CC_DESIGN_PERSON_AND_ORGANIZATION_ASSIGNMENT ( #237, #233, ( #179 ) ) ;
#162 = EDGE_LOOP ( 'NONE', ( #219, #96 ) ) ;
#163 = CYLINDRICAL_SURFACE ( 'NONE', #168, 8.000000000000000000 ) ;
#164 = CARTESIAN_POINT ( 'NONE',  ( 0.000000000000000000, 0.000000000000000000, 5.000000000000000000 ) ) ;
#165 = EDGE_LOOP ( 'NONE', ( #126, #146 ) ) ;
#166 = DIRECTION ( 'NONE',  ( -1.000000000000000000, 0.000000000000000000, 0.000000000000000000 ) ) ;
#167 = DIRECTION ( 'NONE',  ( 1.000000000000000000, 0.000000000000000000, -0.000000000000000000 ) ) ;
#168 = AXIS2_PLACEMENT_3D ( 'NONE', #240, #94, #245 ) ;
#169 = DIRECTION ( 'NONE',  ( -0.000000000000000000, -0.000000000000000000, -1.000000000000000000 ) ) ;
#170 = DIRECTION ( 'NONE',  ( -0.000000000000000000, -0.000000000000000000, -1.000000000000000000 ) ) ;
#171 = ORIENTED_EDGE ( 'NONE', *, *, #53, .T. ) ;
#172 = DIRECTION ( 'NONE',  ( 1.000000000000000000, 0.000000000000000000, 0.000000000000000000 ) ) ;
#173 = CIRCLE ( 'NONE', #198, 5.100000000000001421 ) ;
#174 = DESIGN_CONTEXT ( 'detailed design', #131, 'design' ) ;
#175 = AXIS2_PLACEMENT_3D ( 'NONE', #35, #117, #15 ) ;
#176 = FACE_OUTER_BOUND ( 'NONE', #206, .T. ) ;
#177 = PERSON_AND_ORGANIZATION_ROLE ( 'creator' ) ;
#178 = ADVANCED_FACE ( 'NONE', ( #112 ), #42, .T. ) ;
#179 = PRODUCT ( '68ad', '68ad', '', ( #50 ) ) ;
#180 = ORIENTED_EDGE ( 'NONE', *, *, #182, .F. ) ;
#181 =( GEOMETRIC_REPRESENTATION_CONTEXT ( 3 ) GLOBAL_UNCERTAINTY_ASSIGNED_CONTEXT ( ( #84 ) ) GLOBAL_UNIT_ASSIGNED_CONTEXT ( ( #154, #130, #207 ) ) REPRESENTATION_CONTEXT ( 'NONE', 'WORKASPACE' ) );
#182 = EDGE_CURVE ( 'NONE', #46, #9, #135, .T. ) ;
#183 = DIRECTION ( 'NONE',  ( 1.000000000000000000, 0.000000000000000000, 0.000000000000000000 ) ) ;
#184 = CARTESIAN_POINT ( 'NONE',  ( 0.000000000000000000, 0.000000000000000000, 630.0000000000000000 ) ) ;
#185 = DIRECTION ( 'NONE',  ( 1.000000000000000000, 0.000000000000000000, 0.000000000000000000 ) ) ;
#186 = ORIENTED_EDGE ( 'NONE', *, *, #109, .F. ) ;
#187 = APPROVAL_STATUS ( 'not_yet_approved' ) ;
#188 = CARTESIAN_POINT ( 'NONE',  ( 8.000000000000000000, 9.797174393178825657E-16, 5.000000000000000000 ) ) ;
#189 = CC_DESIGN_APPROVAL ( #16, ( #196 ) ) ;
#190 = DIRECTION ( 'NONE',  ( 0.000000000000000000, 0.000000000000000000, 1.000000000000000000 ) ) ;
#191 = CARTESIAN_POINT ( 'NONE',  ( -8.000000000000000000, 0.000000000000000000, 5.000000000000000000 ) ) ;
#192 = CARTESIAN_POINT ( 'NONE',  ( 5.100000000000001421, 6.245698675651502811E-16, 630.0000000000000000 ) ) ;
#193 = DATE_AND_TIME ( #247, #120 ) ;
#194 = PLANE ( 'NONE',  #60 ) ;
#195 = EDGE_CURVE ( 'NONE', #31, #75, #173, .T. ) ;
#196 = PRODUCT_DEFINITION_FORMATION_WITH_SPECIFIED_SOURCE ( 'LIBOVOLNÝ', '', #179, .NOT_KNOWN. ) ;
#197 = EDGE_CURVE ( 'NONE', #217, #229, #136, .T. ) ;
#198 = AXIS2_PLACEMENT_3D ( 'NONE', #78, #104, #172 ) ;
#199 = PERSON_AND_ORGANIZATION ( #105, #65 ) ;
#200 = APPROVAL_STATUS ( 'not_yet_approved' ) ;
#201 = AXIS2_PLACEMENT_3D ( 'NONE', #1, #81, #224 ) ;
#202 = ORIENTED_EDGE ( 'NONE', *, *, #89, .T. ) ;
#203 = CARTESIAN_POINT ( 'NONE',  ( 0.000000000000000000, 0.000000000000000000, 630.0000000000000000 ) ) ;
#204 = VECTOR ( 'NONE', #73, 1000.000000000000000 ) ;
#205 = CARTESIAN_POINT ( 'NONE',  ( 0.000000000000000000, 0.000000000000000000, 5.000000000000000000 ) ) ;
#206 = EDGE_LOOP ( 'NONE', ( #180, #76, #147, #202 ) ) ;
#207 =( NAMED_UNIT ( * ) SI_UNIT ( $, .STERADIAN. ) SOLID_ANGLE_UNIT ( ) );
#208 = CARTESIAN_POINT ( 'NONE',  ( 0.000000000000000000, 0.000000000000000000, 0.000000000000000000 ) ) ;
#209 = ORIENTED_EDGE ( 'NONE', *, *, #137, .F. ) ;
#210 = AXIS2_PLACEMENT_3D ( 'NONE', #164, #66, #27 ) ;
#211 = APPROVAL_ROLE ( '' ) ;
#212 = ADVANCED_FACE ( 'NONE', ( #55 ), #34, .T. ) ;
#213 = SECURITY_CLASSIFICATION_LEVEL ( 'unclassified' ) ;
#214 = PERSON_AND_ORGANIZATION ( #105, #65 ) ;
#215 = PRODUCT_RELATED_PRODUCT_CATEGORY ( 'detail', '', ( #179 ) ) ;
#216 = CLOSED_SHELL ( 'NONE', ( #63, #149, #111, #251, #80, #178, #212 ) ) ;
#217 = VERTEX_POINT ( 'NONE', #228 ) ;
#218 = APPROVAL_PERSON_ORGANIZATION ( #223, #230, #249 ) ;
#219 = ORIENTED_EDGE ( 'NONE', *, *, #195, .T. ) ;
#220 = PLANE ( 'NONE',  #70 ) ;
#221 = CIRCLE ( 'NONE', #54, 5.100000000000001421 ) ;
#222 = CARTESIAN_POINT ( 'NONE',  ( 8.000000000000000000, 9.797174393178825657E-16, 0.000000000000000000 ) ) ;
#223 = PERSON_AND_ORGANIZATION ( #105, #65 ) ;
#224 = DIRECTION ( 'NONE',  ( 1.000000000000000000, 0.000000000000000000, 0.000000000000000000 ) ) ;
#225 = DIRECTION ( 'NONE',  ( 1.000000000000000000, 0.000000000000000000, 0.000000000000000000 ) ) ;
#226 = DIRECTION ( 'NONE',  ( 0.000000000000000000, 0.000000000000000000, 1.000000000000000000 ) ) ;
#227 = ORIENTED_EDGE ( 'NONE', *, *, #195, .F. ) ;
#228 = CARTESIAN_POINT ( 'NONE',  ( -8.000000000000000000, 0.000000000000000000, 5.000000000000000000 ) ) ;
#229 = VERTEX_POINT ( 'NONE', #99 ) ;
#230 = APPROVAL ( #187, 'NEURÈENÝ' ) ;
#231 = COORDINATED_UNIVERSAL_TIME_OFFSET ( 1, 0, .AHEAD. ) ;
#232 = PERSON_AND_ORGANIZATION ( #105, #65 ) ;
#233 = PERSON_AND_ORGANIZATION_ROLE ( 'design_owner' ) ;
#234 = AXIS2_PLACEMENT_3D ( 'NONE', #134, #38, #183 ) ;
#235 = CYLINDRICAL_SURFACE ( 'NONE', #210, 8.000000000000000000 ) ;
#236 = CC_DESIGN_APPROVAL ( #230, ( #21 ) ) ;
#237 = PERSON_AND_ORGANIZATION ( #105, #65 ) ;
#238 = EDGE_LOOP ( 'NONE', ( #77, #248 ) ) ;
#239 = ORIENTED_EDGE ( 'NONE', *, *, #23, .F. ) ;
#240 = CARTESIAN_POINT ( 'NONE',  ( 0.000000000000000000, 0.000000000000000000, 5.000000000000000000 ) ) ;
#241 = ORIENTED_EDGE ( 'NONE', *, *, #28, .F. ) ;
#242 = ORIENTED_EDGE ( 'NONE', *, *, #45, .F. ) ;
#243 = DIRECTION ( 'NONE',  ( 1.000000000000000000, 0.000000000000000000, 0.000000000000000000 ) ) ;
#244 = DIRECTION ( 'NONE',  ( 1.000000000000000000, 0.000000000000000000, 0.000000000000000000 ) ) ;
#245 = DIRECTION ( 'NONE',  ( -1.000000000000000000, 0.000000000000000000, 0.000000000000000000 ) ) ;
#246 = CARTESIAN_POINT ( 'NONE',  ( -5.100000000000001421, 0.000000000000000000, 5.000000000000000000 ) ) ;
#247 = CALENDAR_DATE ( 2023, 12, 2 ) ;
#248 = ORIENTED_EDGE ( 'NONE', *, *, #53, .F. ) ;
#249 = APPROVAL_ROLE ( '' ) ;
#250 = DIRECTION ( 'NONE',  ( 0.000000000000000000, 0.000000000000000000, 1.000000000000000000 ) ) ;
#251 = ADVANCED_FACE ( 'NONE', ( #148, #118 ), #194, .T. ) ;
#252 = EDGE_LOOP ( 'NONE', ( #52, #239 ) ) ;
#253 = CIRCLE ( 'NONE', #141, 8.000000000000000000 ) ;
#254 = ADVANCED_BREP_SHAPE_REPRESENTATION ( '68ad', ( #142, #201 ), #181 ) ;
#255 = APPROVAL_PERSON_ORGANIZATION ( #232, #158, #106 ) ;
ENDSEC;
END-ISO-10303-21;
