ISO-10303-21;
HEADER;
FILE_DESCRIPTION (( 'STEP AP203' ),
    '1' );
FILE_NAME ('e8b0.STEP',
    '2022-07-07T09:40:35',
    ( '' ),
    ( '' ),
    'SwSTEP 2.0',
    'SolidWorks 2019',
    '' );
FILE_SCHEMA (( 'CONFIG_CONTROL_DESIGN' ));
ENDSEC;

DATA;
#1 = COORDINATED_UNIVERSAL_TIME_OFFSET ( 1, 0, .AHEAD. ) ;
#2 = AXIS2_PLACEMENT_3D ( 'NONE', #254, #249, #247 ) ;
#3 = CALENDAR_DATE ( 2022, 7, 7 ) ;
#4 = EDGE_CURVE ( 'NONE', #109, #227, #277, .T. ) ;
#5 = COORDINATED_UNIVERSAL_TIME_OFFSET ( 1, 0, .AHEAD. ) ;
#6 = PERSON_AND_ORGANIZATION ( #274, #200 ) ;
#7 = LOCAL_TIME ( 11, 40, 35.00000000000000000, #1 ) ;
#8 = CC_DESIGN_DATE_AND_TIME_ASSIGNMENT ( #29, #176, ( #219 ) ) ;
#9 = ORIENTED_EDGE ( 'NONE', *, *, #260, .T. ) ;
#10 = DIRECTION ( 'NONE',  ( 1.000000000000000000, 0.000000000000000000, -0.000000000000000000 ) ) ;
#11 = DIRECTION ( 'NONE',  ( -0.000000000000000000, -0.000000000000000000, -1.000000000000000000 ) ) ;
#12 = ORIENTED_EDGE ( 'NONE', *, *, #304, .T. ) ;
#13 = FACE_OUTER_BOUND ( 'NONE', #189, .T. ) ;
#14 = EDGE_CURVE ( 'NONE', #294, #193, #115, .T. ) ;
#15 = CARTESIAN_POINT ( 'NONE',  ( 11.00000000000000000, 1.347111479062088405E-15, 0.000000000000000000 ) ) ;
#16 = PLANE ( 'NONE',  #18 ) ;
#17 = DIRECTION ( 'NONE',  ( -0.000000000000000000, -0.000000000000000000, -1.000000000000000000 ) ) ;
#18 = AXIS2_PLACEMENT_3D ( 'NONE', #129, #37, #10 ) ;
#19 = CARTESIAN_POINT ( 'NONE',  ( 0.000000000000000000, 0.000000000000000000, 7.199999999999984190 ) ) ;
#20 = CARTESIAN_POINT ( 'NONE',  ( -7.000000000000000888, 0.000000000000000000, 407.0000000000000000 ) ) ;
#21 = CARTESIAN_POINT ( 'NONE',  ( 0.000000000000000000, 0.000000000000000000, 7.000000000000000000 ) ) ;
#22 = VECTOR ( 'NONE', #272, 1000.000000000000000 ) ;
#23 = APPLICATION_PROTOCOL_DEFINITION ( 'international standard', 'config_control_design', 1994, #175 ) ;
#24 = CARTESIAN_POINT ( 'NONE',  ( 0.000000000000000000, 0.000000000000000000, 0.000000000000000000 ) ) ;
#25 = VECTOR ( 'NONE', #234, 1000.000000000000000 ) ;
#26 = CALENDAR_DATE ( 2022, 7, 7 ) ;
#27 = APPROVAL_ROLE ( '' ) ;
#28 = EDGE_CURVE ( 'NONE', #63, #181, #155, .T. ) ;
#29 = DATE_AND_TIME ( #287, #48 ) ;
#30 = APPROVAL_DATE_TIME ( #99, #157 ) ;
#31 = DIRECTION ( 'NONE',  ( -0.000000000000000000, -0.000000000000000000, -1.000000000000000000 ) ) ;
#32 = ADVANCED_FACE ( 'NONE', ( #43, #137 ), #281, .T. ) ;
#33 = AXIS2_PLACEMENT_3D ( 'NONE', #53, #31, #126 ) ;
#34 = DIRECTION ( 'NONE',  ( 0.000000000000000000, 0.000000000000000000, 1.000000000000000000 ) ) ;
#35 = ORIENTED_EDGE ( 'NONE', *, *, #28, .F. ) ;
#36 = DIRECTION ( 'NONE',  ( 0.000000000000000000, 0.000000000000000000, 1.000000000000000000 ) ) ;
#37 = DIRECTION ( 'NONE',  ( 0.000000000000000000, 0.000000000000000000, 1.000000000000000000 ) ) ;
#38 = LOCAL_TIME ( 11, 40, 35.00000000000000000, #223 ) ;
#39 = PRODUCT_RELATED_PRODUCT_CATEGORY ( 'detail', '', ( #220 ) ) ;
#40 = DIRECTION ( 'NONE',  ( -0.000000000000000000, -0.000000000000000000, -1.000000000000000000 ) ) ;
#41 = EDGE_LOOP ( 'NONE', ( #158, #241, #178, #78 ) ) ;
#42 = CARTESIAN_POINT ( 'NONE',  ( 7.200000000000001066, 0.000000000000000000, 6.999999999999992006 ) ) ;
#43 = FACE_BOUND ( 'NONE', #269, .T. ) ;
#44 = LOCAL_TIME ( 11, 40, 35.00000000000000000, #150 ) ;
#45 = CARTESIAN_POINT ( 'NONE',  ( 0.000000000000000000, 0.000000000000000000, 407.0000000000000000 ) ) ;
#46 = FACE_OUTER_BOUND ( 'NONE', #230, .T. ) ;
#47 = CIRCLE ( 'NONE', #86, 7.000000000000000888 ) ;
#48 = LOCAL_TIME ( 11, 40, 35.00000000000000000, #5 ) ;
#49 =( NAMED_UNIT ( * ) SI_UNIT ( $, .STERADIAN. ) SOLID_ANGLE_UNIT ( ) );
#50 = APPROVAL_STATUS ( 'not_yet_approved' ) ;
#51 = DIRECTION ( 'NONE',  ( 0.000000000000000000, 0.000000000000000000, 1.000000000000000000 ) ) ;
#52 = PERSON_AND_ORGANIZATION ( #274, #200 ) ;
#53 = CARTESIAN_POINT ( 'NONE',  ( 0.000000000000000000, 0.000000000000000000, 7.000000000000000000 ) ) ;
#54 = ORIENTED_EDGE ( 'NONE', *, *, #186, .F. ) ;
#55 = CC_DESIGN_DATE_AND_TIME_ASSIGNMENT ( #71, #148, ( #276 ) ) ;
#56 = ORIENTED_EDGE ( 'NONE', *, *, #258, .F. ) ;
#57 = CARTESIAN_POINT ( 'NONE',  ( 0.000000000000000000, 0.000000000000000000, 7.000000000000000000 ) ) ;
#58 = ORIENTED_EDGE ( 'NONE', *, *, #304, .F. ) ;
#59 = ADVANCED_FACE ( 'NONE', ( #85 ), #215, .T. ) ;
#60 = DIRECTION ( 'NONE',  ( -1.000000000000000000, 0.000000000000000000, 0.000000000000000000 ) ) ;
#61 = CARTESIAN_POINT ( 'NONE',  ( 11.00000000000000000, 1.347111479062088405E-15, 7.000000000000000000 ) ) ;
#62 = APPROVAL_PERSON_ORGANIZATION ( #52, #81, #262 ) ;
#63 = VERTEX_POINT ( 'NONE', #15 ) ;
#64 = CARTESIAN_POINT ( 'NONE',  ( -7.000000000000000888, 0.000000000000000000, 7.199999999999984190 ) ) ;
#65 = CC_DESIGN_PERSON_AND_ORGANIZATION_ASSIGNMENT ( #288, #244, ( #276 ) ) ;
#66 = EDGE_LOOP ( 'NONE', ( #56, #77, #154, #12 ) ) ;
#67 = EDGE_LOOP ( 'NONE', ( #58, #35 ) ) ;
#68 = CIRCLE ( 'NONE', #182, 7.200000000000001066 ) ;
#69 = VERTEX_POINT ( 'NONE', #253 ) ;
#70 = APPROVAL_DATE_TIME ( #285, #208 ) ;
#71 = DATE_AND_TIME ( #286, #7 ) ;
#72 = FACE_OUTER_BOUND ( 'NONE', #105, .T. ) ;
#73 = TOROIDAL_SURFACE ( 'NONE', #188, 7.200000000000001066, 0.2000000000000000111 ) ;
#74 = APPROVAL_PERSON_ORGANIZATION ( #123, #208, #96 ) ;
#75 = CC_DESIGN_PERSON_AND_ORGANIZATION_ASSIGNMENT ( #6, #264, ( #156 ) ) ;
#76 = CARTESIAN_POINT ( 'NONE',  ( 11.00000000000000000, 1.347111479062088405E-15, 7.000000000000000000 ) ) ;
#77 = ORIENTED_EDGE ( 'NONE', *, *, #172, .F. ) ;
#78 = ORIENTED_EDGE ( 'NONE', *, *, #222, .T. ) ;
#79 = CARTESIAN_POINT ( 'NONE',  ( 0.000000000000000000, 0.000000000000000000, 407.0000000000000000 ) ) ;
#80 = EDGE_LOOP ( 'NONE', ( #238, #291, #203, #120 ) ) ;
#81 = APPROVAL ( #50, 'NEURÈENÝ' ) ;
#82 = DIRECTION ( 'NONE',  ( 1.000000000000000000, 0.000000000000000000, 0.000000000000000000 ) ) ;
#83 = VERTEX_POINT ( 'NONE', #235 ) ;
#84 = DIRECTION ( 'NONE',  ( 0.000000000000000000, 0.000000000000000000, 1.000000000000000000 ) ) ;
#85 = FACE_OUTER_BOUND ( 'NONE', #41, .T. ) ;
#86 = AXIS2_PLACEMENT_3D ( 'NONE', #139, #300, #91 ) ;
#87 = CARTESIAN_POINT ( 'NONE',  ( -7.200000000000001066, 8.817456953860944275E-16, 7.199999999999984190 ) ) ;
#88 = CIRCLE ( 'NONE', #284, 0.1999999999999996503 ) ;
#89 = EDGE_CURVE ( 'NONE', #83, #210, #132, .T. ) ;
#90 = DIRECTION ( 'NONE',  ( 1.000000000000000000, 0.000000000000000000, 0.000000000000000000 ) ) ;
#91 = DIRECTION ( 'NONE',  ( 1.000000000000000000, 0.000000000000000000, 0.000000000000000000 ) ) ;
#92 = DIRECTION ( 'NONE',  ( 1.000000000000000000, 0.000000000000000000, -0.000000000000000000 ) ) ;
#93 = VECTOR ( 'NONE', #257, 1000.000000000000000 ) ;
#94 = DESIGN_CONTEXT ( 'detailed design', #175, 'design' ) ;
#95 = APPLICATION_CONTEXT ( 'configuration controlled 3d designs of mechanical parts and assemblies' ) ;
#96 = APPROVAL_ROLE ( '' ) ;
#97 = CIRCLE ( 'NONE', #174, 11.00000000000000000 ) ;
#98 = PERSON_AND_ORGANIZATION ( #274, #200 ) ;
#99 = DATE_AND_TIME ( #3, #38 ) ;
#100 = CC_DESIGN_PERSON_AND_ORGANIZATION_ASSIGNMENT ( #224, #201, ( #156 ) ) ;
#101 = APPROVAL_DATE_TIME ( #153, #81 ) ;
#102 = PERSON_AND_ORGANIZATION ( #274, #200 ) ;
#103 = EDGE_LOOP ( 'NONE', ( #296, #271 ) ) ;
#104 = ADVANCED_BREP_SHAPE_REPRESENTATION ( 'e8b0', ( #146, #251 ), #107 ) ;
#105 = EDGE_LOOP ( 'NONE', ( #290, #248, #127, #54 ) ) ;
#106 = LINE ( 'NONE', #209, #25 ) ;
#107 =( GEOMETRIC_REPRESENTATION_CONTEXT ( 3 ) GLOBAL_UNCERTAINTY_ASSIGNED_CONTEXT ( ( #218 ) ) GLOBAL_UNIT_ASSIGNED_CONTEXT ( ( #245, #197, #49 ) ) REPRESENTATION_CONTEXT ( 'NONE', 'WORKASPACE' ) );
#108 = DIRECTION ( 'NONE',  ( 0.000000000000000000, 0.000000000000000000, -1.000000000000000000 ) ) ;
#109 = VERTEX_POINT ( 'NONE', #191 ) ;
#110 = DIRECTION ( 'NONE',  ( 0.000000000000000000, -1.000000000000000000, 0.000000000000000000 ) ) ;
#111 = CARTESIAN_POINT ( 'NONE',  ( 0.000000000000000000, 0.000000000000000000, 7.000000000000000000 ) ) ;
#112 = ADVANCED_FACE ( 'NONE', ( #279 ), #73, .F. ) ;
#113 = DIRECTION ( 'NONE',  ( 1.000000000000000000, 0.000000000000000000, 0.000000000000000000 ) ) ;
#114 = ORIENTED_EDGE ( 'NONE', *, *, #4, .F. ) ;
#115 = CIRCLE ( 'NONE', #261, 11.00000000000000000 ) ;
#116 = CIRCLE ( 'NONE', #239, 11.00000000000000000 ) ;
#117 = EDGE_LOOP ( 'NONE', ( #266, #204, #162, #128 ) ) ;
#118 = DIRECTION ( 'NONE',  ( 1.000000000000000000, 0.000000000000000000, 0.000000000000000000 ) ) ;
#119 = EDGE_CURVE ( 'NONE', #109, #185, #47, .T. ) ;
#120 = ORIENTED_EDGE ( 'NONE', *, *, #89, .F. ) ;
#121 = LOCAL_TIME ( 11, 40, 35.00000000000000000, #196 ) ;
#122 = CC_DESIGN_PERSON_AND_ORGANIZATION_ASSIGNMENT ( #98, #225, ( #220 ) ) ;
#123 = PERSON_AND_ORGANIZATION ( #274, #200 ) ;
#124 = CALENDAR_DATE ( 2022, 7, 7 ) ;
#125 = SECURITY_CLASSIFICATION_LEVEL ( 'unclassified' ) ;
#126 = DIRECTION ( 'NONE',  ( -1.000000000000000000, 0.000000000000000000, 0.000000000000000000 ) ) ;
#127 = ORIENTED_EDGE ( 'NONE', *, *, #28, .T. ) ;
#128 = ORIENTED_EDGE ( 'NONE', *, *, #202, .F. ) ;
#129 = CARTESIAN_POINT ( 'NONE',  ( 0.000000000000000000, 0.000000000000000000, 407.0000000000000000 ) ) ;
#130 = FACE_OUTER_BOUND ( 'NONE', #117, .T. ) ;
#131 = ORIENTED_EDGE ( 'NONE', *, *, #119, .T. ) ;
#132 = CIRCLE ( 'NONE', #217, 7.200000000000001066 ) ;
#133 = CC_DESIGN_SECURITY_CLASSIFICATION ( #219, ( #156 ) ) ;
#134 = CARTESIAN_POINT ( 'NONE',  ( -11.00000000000000000, 0.000000000000000000, 0.000000000000000000 ) ) ;
#135 = EDGE_CURVE ( 'NONE', #185, #109, #268, .T. ) ;
#136 = CARTESIAN_POINT ( 'NONE',  ( -11.00000000000000000, 0.000000000000000000, 7.000000000000000000 ) ) ;
#137 = FACE_OUTER_BOUND ( 'NONE', #103, .T. ) ;
#138 = CARTESIAN_POINT ( 'NONE',  ( 0.000000000000000000, 0.000000000000000000, 0.000000000000000000 ) ) ;
#139 = CARTESIAN_POINT ( 'NONE',  ( 0.000000000000000000, 0.000000000000000000, 407.0000000000000000 ) ) ;
#140 = AXIS2_PLACEMENT_3D ( 'NONE', #45, #141, #168 ) ;
#141 = DIRECTION ( 'NONE',  ( 0.000000000000000000, 0.000000000000000000, 1.000000000000000000 ) ) ;
#142 = ORIENTED_EDGE ( 'NONE', *, *, #135, .F. ) ;
#143 = AXIS2_PLACEMENT_3D ( 'NONE', #302, #216, #118 ) ;
#144 = CIRCLE ( 'NONE', #307, 0.1999999999999996503 ) ;
#145 = ADVANCED_FACE ( 'NONE', ( #46 ), #228, .T. ) ;
#146 = MANIFOLD_SOLID_BREP ( 'Zaoblit1', #259 ) ;
#147 = CYLINDRICAL_SURFACE ( 'NONE', #33, 11.00000000000000000 ) ;
#148 = DATE_TIME_ROLE ( 'creation_date' ) ;
#149 = CC_DESIGN_APPROVAL ( #208, ( #276 ) ) ;
#150 = COORDINATED_UNIVERSAL_TIME_OFFSET ( 1, 0, .AHEAD. ) ;
#151 = DIRECTION ( 'NONE',  ( 1.000000000000000000, 0.000000000000000000, 0.000000000000000000 ) ) ;
#152 = CC_DESIGN_PERSON_AND_ORGANIZATION_ASSIGNMENT ( #102, #289, ( #219 ) ) ;
#153 = DATE_AND_TIME ( #26, #44 ) ;
#154 = ORIENTED_EDGE ( 'NONE', *, *, #186, .T. ) ;
#155 = CIRCLE ( 'NONE', #143, 11.00000000000000000 ) ;
#156 = PRODUCT_DEFINITION_FORMATION_WITH_SPECIFIED_SOURCE ( 'LIBOVOLNÝ', '', #220, .NOT_KNOWN. ) ;
#157 = APPROVAL ( #243, 'NEURÈENÝ' ) ;
#158 = ORIENTED_EDGE ( 'NONE', *, *, #213, .F. ) ;
#159 = DIRECTION ( 'NONE',  ( -0.000000000000000000, -0.000000000000000000, -1.000000000000000000 ) ) ;
#160 = CARTESIAN_POINT ( 'NONE',  ( 0.000000000000000000, 0.000000000000000000, 7.000000000000000000 ) ) ;
#161 = DIRECTION ( 'NONE',  ( -0.000000000000000000, -0.000000000000000000, -1.000000000000000000 ) ) ;
#162 = ORIENTED_EDGE ( 'NONE', *, *, #260, .F. ) ;
#163 = CARTESIAN_POINT ( 'NONE',  ( 7.000000000000000888, 8.572527594031474176E-16, 407.0000000000000000 ) ) ;
#164 = DIRECTION ( 'NONE',  ( 0.000000000000000000, 0.000000000000000000, 1.000000000000000000 ) ) ;
#165 = DIRECTION ( 'NONE',  ( -0.000000000000000000, -0.000000000000000000, -1.000000000000000000 ) ) ;
#166 = AXIS2_PLACEMENT_3D ( 'NONE', #212, #164, #92 ) ;
#167 = ADVANCED_FACE ( 'NONE', ( #130 ), #306, .F. ) ;
#168 = DIRECTION ( 'NONE',  ( 1.000000000000000000, 0.000000000000000000, 0.000000000000000000 ) ) ;
#169 = VECTOR ( 'NONE', #11, 1000.000000000000000 ) ;
#170 = MECHANICAL_CONTEXT ( 'NONE', #95, 'mechanical' ) ;
#171 = CARTESIAN_POINT ( 'NONE',  ( 0.000000000000000000, 0.000000000000000000, 0.000000000000000000 ) ) ;
#172 = EDGE_CURVE ( 'NONE', #193, #294, #97, .T. ) ;
#173 = PERSON_AND_ORGANIZATION ( #274, #200 ) ;
#174 = AXIS2_PLACEMENT_3D ( 'NONE', #190, #34, #113 ) ;
#175 = APPLICATION_CONTEXT ( 'configuration controlled 3d designs of mechanical parts and assemblies' ) ;
#176 = DATE_TIME_ROLE ( 'classification_date' ) ;
#177 = DIRECTION ( 'NONE',  ( 0.000000000000000000, 0.000000000000000000, 1.000000000000000000 ) ) ;
#178 = ORIENTED_EDGE ( 'NONE', *, *, #4, .T. ) ;
#179 = ORIENTED_EDGE ( 'NONE', *, *, #89, .T. ) ;
#180 = ADVANCED_FACE ( 'NONE', ( #13 ), #16, .T. ) ;
#181 = VERTEX_POINT ( 'NONE', #134 ) ;
#182 = AXIS2_PLACEMENT_3D ( 'NONE', #160, #161, #237 ) ;
#183 = FACE_OUTER_BOUND ( 'NONE', #66, .T. ) ;
#184 = CARTESIAN_POINT ( 'NONE',  ( 0.000000000000000000, 0.000000000000000000, 7.199999999999984190 ) ) ;
#185 = VERTEX_POINT ( 'NONE', #163 ) ;
#186 = EDGE_CURVE ( 'NONE', #193, #181, #295, .T. ) ;
#187 = DIRECTION ( 'NONE',  ( -1.000000000000000000, 1.224646799147358384E-16, 0.000000000000000000 ) ) ;
#188 = AXIS2_PLACEMENT_3D ( 'NONE', #19, #240, #214 ) ;
#189 = EDGE_LOOP ( 'NONE', ( #131, #267 ) ) ;
#190 = CARTESIAN_POINT ( 'NONE',  ( 0.000000000000000000, 0.000000000000000000, 7.000000000000000000 ) ) ;
#191 = CARTESIAN_POINT ( 'NONE',  ( -7.000000000000000888, 0.000000000000000000, 407.0000000000000000 ) ) ;
#192 = DIRECTION ( 'NONE',  ( 0.000000000000000000, 0.000000000000000000, 1.000000000000000000 ) ) ;
#193 = VERTEX_POINT ( 'NONE', #136 ) ;
#194 = AXIS2_PLACEMENT_3D ( 'NONE', #138, #298, #275 ) ;
#195 = PRODUCT_DEFINITION_SHAPE ( 'NONE', 'NONE',  #276 ) ;
#196 = COORDINATED_UNIVERSAL_TIME_OFFSET ( 1, 0, .AHEAD. ) ;
#197 =( NAMED_UNIT ( * ) PLANE_ANGLE_UNIT ( ) SI_UNIT ( $, .RADIAN. ) );
#198 = DIRECTION ( 'NONE',  ( 1.000000000000000000, 0.000000000000000000, 0.000000000000000000 ) ) ;
#199 = CC_DESIGN_APPROVAL ( #157, ( #156 ) ) ;
#200 = ORGANIZATION ( 'NEURÈENÝ', 'NEURÈENÝ', '' ) ;
#201 = PERSON_AND_ORGANIZATION_ROLE ( 'design_supplier' ) ;
#202 = EDGE_CURVE ( 'NONE', #69, #210, #144, .T. ) ;
#203 = ORIENTED_EDGE ( 'NONE', *, *, #202, .T. ) ;
#204 = ORIENTED_EDGE ( 'NONE', *, *, #236, .T. ) ;
#205 = DIRECTION ( 'NONE',  ( 1.224646799147353207E-16, 1.000000000000000000, -0.000000000000000000 ) ) ;
#206 = AXIS2_PLACEMENT_3D ( 'NONE', #184, #84, #278 ) ;
#207 = PLANE ( 'NONE',  #194 ) ;
#208 = APPROVAL ( #305, 'NEURÈENÝ' ) ;
#209 = CARTESIAN_POINT ( 'NONE',  ( 7.000000000000000888, 8.572527594031474176E-16, 407.0000000000000000 ) ) ;
#210 = VERTEX_POINT ( 'NONE', #42 ) ;
#211 = CARTESIAN_POINT ( 'NONE',  ( 0.000000000000000000, 0.000000000000000000, 7.199999999999984190 ) ) ;
#212 = CARTESIAN_POINT ( 'NONE',  ( 0.000000000000000000, 0.000000000000000000, 7.000000000000000000 ) ) ;
#213 = EDGE_CURVE ( 'NONE', #185, #69, #106, .T. ) ;
#214 = DIRECTION ( 'NONE',  ( 1.000000000000000000, 0.000000000000000000, 0.000000000000000000 ) ) ;
#215 = CYLINDRICAL_SURFACE ( 'NONE', #297, 7.000000000000000888 ) ;
#216 = DIRECTION ( 'NONE',  ( 0.000000000000000000, 0.000000000000000000, 1.000000000000000000 ) ) ;
#217 = AXIS2_PLACEMENT_3D ( 'NONE', #111, #17, #90 ) ;
#218 = UNCERTAINTY_MEASURE_WITH_UNIT (LENGTH_MEASURE( 1.000000000000000082E-05 ), #245, 'distance_accuracy_value', 'NONE');
#219 = SECURITY_CLASSIFICATION ( '', '', #125 ) ;
#220 = PRODUCT ( 'e8b0', 'e8b0', '', ( #170 ) ) ;
#221 = SHAPE_DEFINITION_REPRESENTATION ( #195, #104 ) ;
#222 = EDGE_CURVE ( 'NONE', #227, #69, #303, .T. ) ;
#223 = COORDINATED_UNIVERSAL_TIME_OFFSET ( 1, 0, .AHEAD. ) ;
#224 = PERSON_AND_ORGANIZATION ( #274, #200 ) ;
#225 = PERSON_AND_ORGANIZATION_ROLE ( 'design_owner' ) ;
#226 = CC_DESIGN_APPROVAL ( #81, ( #219 ) ) ;
#227 = VERTEX_POINT ( 'NONE', #64 ) ;
#228 = CYLINDRICAL_SURFACE ( 'NONE', #255, 7.000000000000000888 ) ;
#229 = CARTESIAN_POINT ( 'NONE',  ( -11.00000000000000000, 0.000000000000000000, 7.000000000000000000 ) ) ;
#230 = EDGE_LOOP ( 'NONE', ( #142, #280, #273, #114 ) ) ;
#231 = EDGE_CURVE ( 'NONE', #69, #227, #232, .T. ) ;
#232 = CIRCLE ( 'NONE', #282, 7.000000000000000888 ) ;
#233 = CARTESIAN_POINT ( 'NONE',  ( 0.000000000000000000, 0.000000000000000000, 407.0000000000000000 ) ) ;
#234 = DIRECTION ( 'NONE',  ( -0.000000000000000000, -0.000000000000000000, -1.000000000000000000 ) ) ;
#235 = CARTESIAN_POINT ( 'NONE',  ( -7.200000000000001066, 8.817456953860944275E-16, 6.999999999999992006 ) ) ;
#236 = EDGE_CURVE ( 'NONE', #227, #83, #88, .T. ) ;
#237 = DIRECTION ( 'NONE',  ( 1.000000000000000000, 0.000000000000000000, 0.000000000000000000 ) ) ;
#238 = ORIENTED_EDGE ( 'NONE', *, *, #236, .F. ) ;
#239 = AXIS2_PLACEMENT_3D ( 'NONE', #24, #51, #198 ) ;
#240 = DIRECTION ( 'NONE',  ( 0.000000000000000000, 0.000000000000000000, 1.000000000000000000 ) ) ;
#241 = ORIENTED_EDGE ( 'NONE', *, *, #119, .F. ) ;
#242 = ADVANCED_FACE ( 'NONE', ( #292 ), #207, .F. ) ;
#243 = APPROVAL_STATUS ( 'not_yet_approved' ) ;
#244 = PERSON_AND_ORGANIZATION_ROLE ( 'creator' ) ;
#245 =( LENGTH_UNIT ( ) NAMED_UNIT ( * ) SI_UNIT ( .MILLI., .METRE. ) );
#246 = APPROVAL_PERSON_ORGANIZATION ( #173, #157, #27 ) ;
#247 = DIRECTION ( 'NONE',  ( 1.000000000000000000, 0.000000000000000000, 0.000000000000000000 ) ) ;
#248 = ORIENTED_EDGE ( 'NONE', *, *, #258, .T. ) ;
#249 = DIRECTION ( 'NONE',  ( 0.000000000000000000, 0.000000000000000000, 1.000000000000000000 ) ) ;
#250 = DIRECTION ( 'NONE',  ( -1.000000000000000000, 0.000000000000000000, 0.000000000000000000 ) ) ;
#251 = AXIS2_PLACEMENT_3D ( 'NONE', #171, #177, #151 ) ;
#252 = CARTESIAN_POINT ( 'NONE',  ( 7.200000000000001066, 0.000000000000000000, 7.199999999999984190 ) ) ;
#253 = CARTESIAN_POINT ( 'NONE',  ( 7.000000000000000888, 8.572527594031474176E-16, 7.199999999999984190 ) ) ;
#254 = CARTESIAN_POINT ( 'NONE',  ( 0.000000000000000000, 0.000000000000000000, 7.199999999999984190 ) ) ;
#255 = AXIS2_PLACEMENT_3D ( 'NONE', #79, #40, #250 ) ;
#256 = DIRECTION ( 'NONE',  ( -1.000000000000000000, 0.000000000000000000, 0.000000000000000000 ) ) ;
#257 = DIRECTION ( 'NONE',  ( -0.000000000000000000, -0.000000000000000000, -1.000000000000000000 ) ) ;
#258 = EDGE_CURVE ( 'NONE', #294, #63, #293, .T. ) ;
#259 = CLOSED_SHELL ( 'NONE', ( #167, #145, #301, #283, #32, #242, #59, #180, #112 ) ) ;
#260 = EDGE_CURVE ( 'NONE', #210, #83, #68, .T. ) ;
#261 = AXIS2_PLACEMENT_3D ( 'NONE', #21, #192, #299 ) ;
#262 = APPROVAL_ROLE ( '' ) ;
#263 = AXIS2_PLACEMENT_3D ( 'NONE', #57, #159, #60 ) ;
#264 = PERSON_AND_ORGANIZATION_ROLE ( 'creator' ) ;
#265 = APPLICATION_PROTOCOL_DEFINITION ( 'international standard', 'config_control_design', 1994, #95 ) ;
#266 = ORIENTED_EDGE ( 'NONE', *, *, #222, .F. ) ;
#267 = ORIENTED_EDGE ( 'NONE', *, *, #135, .T. ) ;
#268 = CIRCLE ( 'NONE', #140, 7.000000000000000888 ) ;
#269 = EDGE_LOOP ( 'NONE', ( #9, #179 ) ) ;
#270 = CYLINDRICAL_SURFACE ( 'NONE', #263, 11.00000000000000000 ) ;
#271 = ORIENTED_EDGE ( 'NONE', *, *, #14, .T. ) ;
#272 = DIRECTION ( 'NONE',  ( -0.000000000000000000, -0.000000000000000000, -1.000000000000000000 ) ) ;
#273 = ORIENTED_EDGE ( 'NONE', *, *, #231, .T. ) ;
#274 = PERSON ( 'NEURÈENÝ', 'NEURÈENÝ', 'NEURÈENÝ', ('NEURÈENÝ'), ('NEURÈENÝ'), ('NEURÈENÝ') ) ;
#275 = DIRECTION ( 'NONE',  ( 1.000000000000000000, 0.000000000000000000, -0.000000000000000000 ) ) ;
#276 = PRODUCT_DEFINITION ( 'NEZNÁMÝ', '', #156, #94 ) ;
#277 = LINE ( 'NONE', #20, #93 ) ;
#278 = DIRECTION ( 'NONE',  ( 1.000000000000000000, 0.000000000000000000, 0.000000000000000000 ) ) ;
#279 = FACE_OUTER_BOUND ( 'NONE', #80, .T. ) ;
#280 = ORIENTED_EDGE ( 'NONE', *, *, #213, .T. ) ;
#281 = PLANE ( 'NONE',  #166 ) ;
#282 = AXIS2_PLACEMENT_3D ( 'NONE', #211, #36, #82 ) ;
#283 = ADVANCED_FACE ( 'NONE', ( #183 ), #270, .T. ) ;
#284 = AXIS2_PLACEMENT_3D ( 'NONE', #87, #205, #187 ) ;
#285 = DATE_AND_TIME ( #124, #121 ) ;
#286 = CALENDAR_DATE ( 2022, 7, 7 ) ;
#287 = CALENDAR_DATE ( 2022, 7, 7 ) ;
#288 = PERSON_AND_ORGANIZATION ( #274, #200 ) ;
#289 = PERSON_AND_ORGANIZATION_ROLE ( 'classification_officer' ) ;
#290 = ORIENTED_EDGE ( 'NONE', *, *, #14, .F. ) ;
#291 = ORIENTED_EDGE ( 'NONE', *, *, #231, .F. ) ;
#292 = FACE_OUTER_BOUND ( 'NONE', #67, .T. ) ;
#293 = LINE ( 'NONE', #61, #22 ) ;
#294 = VERTEX_POINT ( 'NONE', #76 ) ;
#295 = LINE ( 'NONE', #229, #169 ) ;
#296 = ORIENTED_EDGE ( 'NONE', *, *, #172, .T. ) ;
#297 = AXIS2_PLACEMENT_3D ( 'NONE', #233, #165, #256 ) ;
#298 = DIRECTION ( 'NONE',  ( 0.000000000000000000, 0.000000000000000000, 1.000000000000000000 ) ) ;
#299 = DIRECTION ( 'NONE',  ( 1.000000000000000000, 0.000000000000000000, 0.000000000000000000 ) ) ;
#300 = DIRECTION ( 'NONE',  ( 0.000000000000000000, 0.000000000000000000, 1.000000000000000000 ) ) ;
#301 = ADVANCED_FACE ( 'NONE', ( #72 ), #147, .T. ) ;
#302 = CARTESIAN_POINT ( 'NONE',  ( 0.000000000000000000, 0.000000000000000000, 0.000000000000000000 ) ) ;
#303 = CIRCLE ( 'NONE', #206, 7.000000000000000888 ) ;
#304 = EDGE_CURVE ( 'NONE', #181, #63, #116, .T. ) ;
#305 = APPROVAL_STATUS ( 'not_yet_approved' ) ;
#306 = TOROIDAL_SURFACE ( 'NONE', #2, 7.200000000000001066, 0.2000000000000000111 ) ;
#307 = AXIS2_PLACEMENT_3D ( 'NONE', #252, #110, #108 ) ;
ENDSEC;
END-ISO-10303-21;
