ISO-10303-21;
HEADER;
FILE_DESCRIPTION (( 'STEP AP203' ),
    '1' );
FILE_NAME ('27a8.STEP',
    '2022-07-07T10:03:55',
    ( '' ),
    ( '' ),
    'SwSTEP 2.0',
    'SolidWorks 2019',
    '' );
FILE_SCHEMA (( 'CONFIG_CONTROL_DESIGN' ));
ENDSEC;

DATA;
#1 = EDGE_LOOP ( 'NONE', ( #224, #119, #279, #112 ) ) ;
#2 = ORIENTED_EDGE ( 'NONE', *, *, #53, .F. ) ;
#3 = ORIENTED_EDGE ( 'NONE', *, *, #118, .T. ) ;
#4 = VERTEX_POINT ( 'NONE', #117 ) ;
#5 = LOCAL_TIME ( 12, 3, 55.00000000000000000, #200 ) ;
#6 = EDGE_CURVE ( 'NONE', #94, #247, #140, .T. ) ;
#7 = FACE_BOUND ( 'NONE', #136, .T. ) ;
#8 = DIRECTION ( 'NONE',  ( -1.000000000000000000, 0.000000000000000000, 0.000000000000000000 ) ) ;
#9 = AXIS2_PLACEMENT_3D ( 'NONE', #69, #73, #52 ) ;
#10 = DIRECTION ( 'NONE',  ( -0.000000000000000000, -0.000000000000000000, -1.000000000000000000 ) ) ;
#11 = DIRECTION ( 'NONE',  ( -0.000000000000000000, -0.000000000000000000, -1.000000000000000000 ) ) ;
#12 = CYLINDRICAL_SURFACE ( 'NONE', #44, 7.000000000000000000 ) ;
#13 = APPROVAL_DATE_TIME ( #104, #197 ) ;
#14 = EDGE_CURVE ( 'NONE', #206, #158, #157, .T. ) ;
#15 = PERSON_AND_ORGANIZATION ( #172, #123 ) ;
#16 = VERTEX_POINT ( 'NONE', #71 ) ;
#17 = APPLICATION_PROTOCOL_DEFINITION ( 'international standard', 'config_control_design', 1994, #225 ) ;
#18 = CIRCLE ( 'NONE', #267, 4.200000000000000178 ) ;
#19 = ORIENTED_EDGE ( 'NONE', *, *, #14, .T. ) ;
#20 = CARTESIAN_POINT ( 'NONE',  ( 0.000000000000000000, 0.000000000000000000, 0.000000000000000000 ) ) ;
#21 = AXIS2_PLACEMENT_3D ( 'NONE', #233, #285, #215 ) ;
#22 = LINE ( 'NONE', #212, #251 ) ;
#23 = CIRCLE ( 'NONE', #180, 4.000000000000000000 ) ;
#24 = AXIS2_PLACEMENT_3D ( 'NONE', #77, #176, #204 ) ;
#25 = ORIENTED_EDGE ( 'NONE', *, *, #6, .T. ) ;
#26 = ORIENTED_EDGE ( 'NONE', *, *, #260, .T. ) ;
#27 = ADVANCED_BREP_SHAPE_REPRESENTATION ( '27a8', ( #32, #269 ), #97 ) ;
#28 = DIRECTION ( 'NONE',  ( 0.000000000000000000, 0.000000000000000000, -1.000000000000000000 ) ) ;
#29 = CC_DESIGN_PERSON_AND_ORGANIZATION_ASSIGNMENT ( #36, #162, ( #164 ) ) ;
#30 = CARTESIAN_POINT ( 'NONE',  ( 0.000000000000000000, 0.000000000000000000, 0.000000000000000000 ) ) ;
#31 = DIRECTION ( 'NONE',  ( 0.000000000000000000, 0.000000000000000000, 1.000000000000000000 ) ) ;
#32 = MANIFOLD_SOLID_BREP ( 'Zaoblit1', #113 ) ;
#33 = CYLINDRICAL_SURFACE ( 'NONE', #35, 4.000000000000000000 ) ;
#34 = SECURITY_CLASSIFICATION_LEVEL ( 'unclassified' ) ;
#35 = AXIS2_PLACEMENT_3D ( 'NONE', #266, #127, #101 ) ;
#36 = PERSON_AND_ORGANIZATION ( #172, #123 ) ;
#37 = ORIENTED_EDGE ( 'NONE', *, *, #277, .T. ) ;
#38 = DIRECTION ( 'NONE',  ( 1.000000000000000000, 0.000000000000000000, 0.000000000000000000 ) ) ;
#39 = EDGE_LOOP ( 'NONE', ( #287, #163, #93, #63 ) ) ;
#40 = EDGE_CURVE ( 'NONE', #249, #61, #171, .T. ) ;
#41 = PERSON_AND_ORGANIZATION ( #172, #123 ) ;
#42 = TOROIDAL_SURFACE ( 'NONE', #80, 4.200000000000000178, 0.2000000000000000111 ) ;
#43 = ORIENTED_EDGE ( 'NONE', *, *, #253, .T. ) ;
#44 = AXIS2_PLACEMENT_3D ( 'NONE', #294, #145, #78 ) ;
#45 = LOCAL_TIME ( 12, 3, 55.00000000000000000, #135 ) ;
#46 = CARTESIAN_POINT ( 'NONE',  ( 0.000000000000000000, 0.000000000000000000, 130.0000000000000000 ) ) ;
#47 = DIRECTION ( 'NONE',  ( 1.000000000000000000, 0.000000000000000000, 0.000000000000000000 ) ) ;
#48 = APPROVAL ( #207, 'NEURÈENÝ' ) ;
#49 = DIRECTION ( 'NONE',  ( 1.000000000000000000, 0.000000000000000000, 0.000000000000000000 ) ) ;
#50 = AXIS2_PLACEMENT_3D ( 'NONE', #190, #120, #72 ) ;
#51 = DIRECTION ( 'NONE',  ( -0.000000000000000000, -0.000000000000000000, -1.000000000000000000 ) ) ;
#52 = DIRECTION ( 'NONE',  ( 1.000000000000000000, 0.000000000000000000, 0.000000000000000000 ) ) ;
#53 = EDGE_CURVE ( 'NONE', #202, #249, #179, .T. ) ;
#54 = CARTESIAN_POINT ( 'NONE',  ( 4.000000000000000000, 4.898587196589412829E-16, 130.0000000000000000 ) ) ;
#55 = DIRECTION ( 'NONE',  ( 1.000000000000000000, 0.000000000000000000, 0.000000000000000000 ) ) ;
#56 = CIRCLE ( 'NONE', #273, 0.1999999999999996503 ) ;
#57 = CARTESIAN_POINT ( 'NONE',  ( 0.000000000000000000, 0.000000000000000000, 0.000000000000000000 ) ) ;
#58 = CARTESIAN_POINT ( 'NONE',  ( 7.000000000000000000, 8.572527594031473190E-16, 5.000000000000000000 ) ) ;
#59 = DIRECTION ( 'NONE',  ( 1.000000000000000000, 0.000000000000000000, 0.000000000000000000 ) ) ;
#60 = COORDINATED_UNIVERSAL_TIME_OFFSET ( 1, 0, .AHEAD. ) ;
#61 = VERTEX_POINT ( 'NONE', #95 ) ;
#62 = ADVANCED_FACE ( 'NONE', ( #258 ), #139, .T. ) ;
#63 = ORIENTED_EDGE ( 'NONE', *, *, #253, .F. ) ;
#64 = AXIS2_PLACEMENT_3D ( 'NONE', #20, #187, #276 ) ;
#65 = DATE_TIME_ROLE ( 'creation_date' ) ;
#66 = PERSON_AND_ORGANIZATION ( #172, #123 ) ;
#67 = ORIENTED_EDGE ( 'NONE', *, *, #201, .T. ) ;
#68 = DATE_AND_TIME ( #274, #137 ) ;
#69 = CARTESIAN_POINT ( 'NONE',  ( 0.000000000000000000, 0.000000000000000000, 5.000000000000000000 ) ) ;
#70 = CIRCLE ( 'NONE', #239, 7.000000000000000000 ) ;
#71 = CARTESIAN_POINT ( 'NONE',  ( -4.000000000000000000, 0.000000000000000000, 5.199999999999996625 ) ) ;
#72 = DIRECTION ( 'NONE',  ( 1.000000000000000000, 0.000000000000000000, 0.000000000000000000 ) ) ;
#73 = DIRECTION ( 'NONE',  ( -0.000000000000000000, -0.000000000000000000, -1.000000000000000000 ) ) ;
#74 = ADVANCED_FACE ( 'NONE', ( #210 ), #42, .F. ) ;
#75 = FACE_OUTER_BOUND ( 'NONE', #229, .T. ) ;
#76 = DIRECTION ( 'NONE',  ( 1.000000000000000000, 0.000000000000000000, -0.000000000000000000 ) ) ;
#77 = CARTESIAN_POINT ( 'NONE',  ( -4.200000000000000178, 5.143516556418882928E-16, 5.199999999999996625 ) ) ;
#78 = DIRECTION ( 'NONE',  ( -1.000000000000000000, 0.000000000000000000, 0.000000000000000000 ) ) ;
#79 = DIRECTION ( 'NONE',  ( 0.000000000000000000, 0.000000000000000000, 1.000000000000000000 ) ) ;
#80 = AXIS2_PLACEMENT_3D ( 'NONE', #89, #169, #167 ) ;
#81 = COORDINATED_UNIVERSAL_TIME_OFFSET ( 1, 0, .AHEAD. ) ;
#82 = ORIENTED_EDGE ( 'NONE', *, *, #142, .F. ) ;
#83 = PERSON_AND_ORGANIZATION_ROLE ( 'creator' ) ;
#84 = PERSON_AND_ORGANIZATION ( #172, #123 ) ;
#85 = ORIENTED_EDGE ( 'NONE', *, *, #260, .F. ) ;
#86 = APPROVAL_PERSON_ORGANIZATION ( #41, #48, #270 ) ;
#87 = COORDINATED_UNIVERSAL_TIME_OFFSET ( 1, 0, .AHEAD. ) ;
#88 = SHAPE_DEFINITION_REPRESENTATION ( #160, #27 ) ;
#89 = CARTESIAN_POINT ( 'NONE',  ( 0.000000000000000000, 0.000000000000000000, 5.199999999999996625 ) ) ;
#90 = EDGE_CURVE ( 'NONE', #4, #213, #109, .T. ) ;
#91 = AXIS2_PLACEMENT_3D ( 'NONE', #192, #79, #238 ) ;
#92 = DIRECTION ( 'NONE',  ( 0.000000000000000000, 0.000000000000000000, 1.000000000000000000 ) ) ;
#93 = ORIENTED_EDGE ( 'NONE', *, *, #6, .F. ) ;
#94 = VERTEX_POINT ( 'NONE', #232 ) ;
#95 = CARTESIAN_POINT ( 'NONE',  ( 4.000000000000000000, 4.898587196589412829E-16, 5.199999999999996625 ) ) ;
#96 = CC_DESIGN_PERSON_AND_ORGANIZATION_ASSIGNMENT ( #66, #295, ( #148 ) ) ;
#97 =( GEOMETRIC_REPRESENTATION_CONTEXT ( 3 ) GLOBAL_UNCERTAINTY_ASSIGNED_CONTEXT ( ( #257 ) ) GLOBAL_UNIT_ASSIGNED_CONTEXT ( ( #182, #184, #228 ) ) REPRESENTATION_CONTEXT ( 'NONE', 'WORKASPACE' ) );
#98 = CARTESIAN_POINT ( 'NONE',  ( 0.000000000000000000, 0.000000000000000000, 5.000000000000000000 ) ) ;
#99 = PRODUCT_DEFINITION ( 'NEZNÁMÝ', '', #244, #214 ) ;
#100 = FACE_OUTER_BOUND ( 'NONE', #306, .T. ) ;
#101 = DIRECTION ( 'NONE',  ( -1.000000000000000000, 0.000000000000000000, 0.000000000000000000 ) ) ;
#102 = AXIS2_PLACEMENT_3D ( 'NONE', #57, #241, #261 ) ;
#103 = CYLINDRICAL_SURFACE ( 'NONE', #211, 4.000000000000000000 ) ;
#104 = DATE_AND_TIME ( #268, #5 ) ;
#105 = APPROVAL_STATUS ( 'not_yet_approved' ) ;
#106 = ORIENTED_EDGE ( 'NONE', *, *, #124, .F. ) ;
#107 = CIRCLE ( 'NONE', #91, 4.000000000000000000 ) ;
#108 = CALENDAR_DATE ( 2022, 7, 7 ) ;
#109 = CIRCLE ( 'NONE', #64, 7.000000000000000000 ) ;
#110 = CIRCLE ( 'NONE', #24, 0.1999999999999996503 ) ;
#111 = ADVANCED_FACE ( 'NONE', ( #256 ), #286, .F. ) ;
#112 = ORIENTED_EDGE ( 'NONE', *, *, #201, .F. ) ;
#113 = CLOSED_SHELL ( 'NONE', ( #111, #138, #146, #193, #271, #222, #155, #62, #74 ) ) ;
#114 = DIRECTION ( 'NONE',  ( -0.000000000000000000, -0.000000000000000000, -1.000000000000000000 ) ) ;
#115 = CC_DESIGN_DATE_AND_TIME_ASSIGNMENT ( #68, #65, ( #99 ) ) ;
#116 = AXIS2_PLACEMENT_3D ( 'NONE', #98, #194, #76 ) ;
#117 = CARTESIAN_POINT ( 'NONE',  ( 7.000000000000000000, 8.572527594031473190E-16, 0.000000000000000000 ) ) ;
#118 = EDGE_CURVE ( 'NONE', #247, #94, #18, .T. ) ;
#119 = ORIENTED_EDGE ( 'NONE', *, *, #40, .T. ) ;
#120 = DIRECTION ( 'NONE',  ( 0.000000000000000000, 0.000000000000000000, 1.000000000000000000 ) ) ;
#121 = AXIS2_PLACEMENT_3D ( 'NONE', #46, #254, #47 ) ;
#122 = CARTESIAN_POINT ( 'NONE',  ( 0.000000000000000000, 0.000000000000000000, 5.000000000000000000 ) ) ;
#123 = ORGANIZATION ( 'NEURÈENÝ', 'NEURÈENÝ', '' ) ;
#124 = EDGE_CURVE ( 'NONE', #206, #213, #22, .T. ) ;
#125 = CARTESIAN_POINT ( 'NONE',  ( 0.000000000000000000, 0.000000000000000000, 130.0000000000000000 ) ) ;
#126 = CARTESIAN_POINT ( 'NONE',  ( -4.000000000000000000, 0.000000000000000000, 130.0000000000000000 ) ) ;
#127 = DIRECTION ( 'NONE',  ( -0.000000000000000000, -0.000000000000000000, -1.000000000000000000 ) ) ;
#128 = DIRECTION ( 'NONE',  ( 0.000000000000000000, 0.000000000000000000, 1.000000000000000000 ) ) ;
#129 = DIRECTION ( 'NONE',  ( 0.000000000000000000, 0.000000000000000000, 1.000000000000000000 ) ) ;
#130 = ORIENTED_EDGE ( 'NONE', *, *, #40, .F. ) ;
#131 = EDGE_CURVE ( 'NONE', #158, #4, #143, .T. ) ;
#132 = EDGE_LOOP ( 'NONE', ( #209, #166 ) ) ;
#133 = ORIENTED_EDGE ( 'NONE', *, *, #131, .F. ) ;
#134 = VECTOR ( 'NONE', #252, 1000.000000000000000 ) ;
#135 = COORDINATED_UNIVERSAL_TIME_OFFSET ( 1, 0, .AHEAD. ) ;
#136 = EDGE_LOOP ( 'NONE', ( #25, #3 ) ) ;
#137 = LOCAL_TIME ( 12, 3, 55.00000000000000000, #87 ) ;
#138 = ADVANCED_FACE ( 'NONE', ( #220 ), #33, .T. ) ;
#139 = PLANE ( 'NONE',  #21 ) ;
#140 = CIRCLE ( 'NONE', #9, 4.200000000000000178 ) ;
#141 = CARTESIAN_POINT ( 'NONE',  ( 0.000000000000000000, 0.000000000000000000, 5.000000000000000000 ) ) ;
#142 = EDGE_CURVE ( 'NONE', #61, #16, #23, .T. ) ;
#143 = LINE ( 'NONE', #289, #296 ) ;
#144 = CARTESIAN_POINT ( 'NONE',  ( 4.000000000000000000, 4.898587196589412829E-16, 130.0000000000000000 ) ) ;
#145 = DIRECTION ( 'NONE',  ( -0.000000000000000000, -0.000000000000000000, -1.000000000000000000 ) ) ;
#146 = ADVANCED_FACE ( 'NONE', ( #196 ), #12, .T. ) ;
#147 = DIRECTION ( 'NONE',  ( 1.000000000000000000, 0.000000000000000000, 0.000000000000000000 ) ) ;
#148 = SECURITY_CLASSIFICATION ( '', '', #34 ) ;
#149 = CARTESIAN_POINT ( 'NONE',  ( -4.000000000000000000, 0.000000000000000000, 130.0000000000000000 ) ) ;
#150 = CARTESIAN_POINT ( 'NONE',  ( 4.200000000000000178, 0.000000000000000000, 5.199999999999996625 ) ) ;
#151 = AXIS2_PLACEMENT_3D ( 'NONE', #255, #92, #49 ) ;
#152 = CARTESIAN_POINT ( 'NONE',  ( -7.000000000000000000, 0.000000000000000000, 5.000000000000000000 ) ) ;
#153 = CALENDAR_DATE ( 2022, 7, 7 ) ;
#154 = APPROVAL_ROLE ( '' ) ;
#155 = ADVANCED_FACE ( 'NONE', ( #75 ), #103, .T. ) ;
#156 = EDGE_LOOP ( 'NONE', ( #133, #299, #189, #183 ) ) ;
#157 = CIRCLE ( 'NONE', #50, 7.000000000000000000 ) ;
#158 = VERTEX_POINT ( 'NONE', #58 ) ;
#159 = CALENDAR_DATE ( 2022, 7, 7 ) ;
#160 = PRODUCT_DEFINITION_SHAPE ( 'NONE', 'NONE',  #99 ) ;
#161 = EDGE_LOOP ( 'NONE', ( #19, #26 ) ) ;
#162 = PERSON_AND_ORGANIZATION_ROLE ( 'design_owner' ) ;
#163 = ORIENTED_EDGE ( 'NONE', *, *, #305, .T. ) ;
#164 = PRODUCT ( '27a8', '27a8', '', ( #186 ) ) ;
#165 = APPROVAL ( #105, 'NEURÈENÝ' ) ;
#166 = ORIENTED_EDGE ( 'NONE', *, *, #174, .T. ) ;
#167 = DIRECTION ( 'NONE',  ( 1.000000000000000000, 0.000000000000000000, 0.000000000000000000 ) ) ;
#168 = EDGE_CURVE ( 'NONE', #213, #4, #70, .T. ) ;
#169 = DIRECTION ( 'NONE',  ( 0.000000000000000000, 0.000000000000000000, 1.000000000000000000 ) ) ;
#170 = CC_DESIGN_APPROVAL ( #197, ( #244 ) ) ;
#171 = LINE ( 'NONE', #144, #134 ) ;
#172 = PERSON ( 'NEURÈENÝ', 'NEURÈENÝ', 'NEURÈENÝ', ('NEURÈENÝ'), ('NEURÈENÝ'), ('NEURÈENÝ') ) ;
#173 = CARTESIAN_POINT ( 'NONE',  ( 0.000000000000000000, 0.000000000000000000, 5.000000000000000000 ) ) ;
#174 = EDGE_CURVE ( 'NONE', #249, #202, #107, .T. ) ;
#175 = CARTESIAN_POINT ( 'NONE',  ( 0.000000000000000000, 0.000000000000000000, 5.199999999999996625 ) ) ;
#176 = DIRECTION ( 'NONE',  ( 1.224646799147353207E-16, 1.000000000000000000, -0.000000000000000000 ) ) ;
#177 = DIRECTION ( 'NONE',  ( 0.000000000000000000, 0.000000000000000000, 1.000000000000000000 ) ) ;
#178 = FACE_OUTER_BOUND ( 'NONE', #161, .T. ) ;
#179 = CIRCLE ( 'NONE', #121, 4.000000000000000000 ) ;
#180 = AXIS2_PLACEMENT_3D ( 'NONE', #175, #128, #147 ) ;
#181 = CC_DESIGN_APPROVAL ( #165, ( #148 ) ) ;
#182 =( LENGTH_UNIT ( ) NAMED_UNIT ( * ) SI_UNIT ( .MILLI., .METRE. ) );
#183 = ORIENTED_EDGE ( 'NONE', *, *, #168, .T. ) ;
#184 =( NAMED_UNIT ( * ) PLANE_ANGLE_UNIT ( ) SI_UNIT ( $, .RADIAN. ) );
#185 = DATE_AND_TIME ( #153, #281 ) ;
#186 = MECHANICAL_CONTEXT ( 'NONE', #231, 'mechanical' ) ;
#187 = DIRECTION ( 'NONE',  ( 0.000000000000000000, 0.000000000000000000, 1.000000000000000000 ) ) ;
#188 = AXIS2_PLACEMENT_3D ( 'NONE', #198, #264, #55 ) ;
#189 = ORIENTED_EDGE ( 'NONE', *, *, #124, .T. ) ;
#190 = CARTESIAN_POINT ( 'NONE',  ( 0.000000000000000000, 0.000000000000000000, 5.000000000000000000 ) ) ;
#191 = ORIENTED_EDGE ( 'NONE', *, *, #90, .F. ) ;
#192 = CARTESIAN_POINT ( 'NONE',  ( 0.000000000000000000, 0.000000000000000000, 130.0000000000000000 ) ) ;
#193 = ADVANCED_FACE ( 'NONE', ( #265 ), #291, .T. ) ;
#194 = DIRECTION ( 'NONE',  ( 0.000000000000000000, 0.000000000000000000, 1.000000000000000000 ) ) ;
#195 = PLANE ( 'NONE',  #116 ) ;
#196 = FACE_OUTER_BOUND ( 'NONE', #283, .T. ) ;
#197 = APPROVAL ( #230, 'NEURÈENÝ' ) ;
#198 = CARTESIAN_POINT ( 'NONE',  ( 0.000000000000000000, 0.000000000000000000, 5.199999999999996625 ) ) ;
#199 = PERSON_AND_ORGANIZATION ( #172, #123 ) ;
#200 = COORDINATED_UNIVERSAL_TIME_OFFSET ( 1, 0, .AHEAD. ) ;
#201 = EDGE_CURVE ( 'NONE', #202, #16, #293, .T. ) ;
#202 = VERTEX_POINT ( 'NONE', #149 ) ;
#203 = LOCAL_TIME ( 12, 3, 55.00000000000000000, #81 ) ;
#204 = DIRECTION ( 'NONE',  ( -1.000000000000000000, 1.224646799147353454E-16, 0.000000000000000000 ) ) ;
#205 = PERSON_AND_ORGANIZATION ( #172, #123 ) ;
#206 = VERTEX_POINT ( 'NONE', #152 ) ;
#207 = APPROVAL_STATUS ( 'not_yet_approved' ) ;
#208 = ORIENTED_EDGE ( 'NONE', *, *, #131, .T. ) ;
#209 = ORIENTED_EDGE ( 'NONE', *, *, #53, .T. ) ;
#210 = FACE_OUTER_BOUND ( 'NONE', #235, .T. ) ;
#211 = AXIS2_PLACEMENT_3D ( 'NONE', #125, #243, #221 ) ;
#212 = CARTESIAN_POINT ( 'NONE',  ( -7.000000000000000000, 0.000000000000000000, 5.000000000000000000 ) ) ;
#213 = VERTEX_POINT ( 'NONE', #290 ) ;
#214 = DESIGN_CONTEXT ( 'detailed design', #225, 'design' ) ;
#215 = DIRECTION ( 'NONE',  ( 1.000000000000000000, 0.000000000000000000, -0.000000000000000000 ) ) ;
#216 = CC_DESIGN_SECURITY_CLASSIFICATION ( #148, ( #244 ) ) ;
#217 = DIRECTION ( 'NONE',  ( 1.000000000000000000, 0.000000000000000000, 0.000000000000000000 ) ) ;
#218 = DIRECTION ( 'NONE',  ( -0.000000000000000000, -0.000000000000000000, -1.000000000000000000 ) ) ;
#219 = CARTESIAN_POINT ( 'NONE',  ( -4.200000000000000178, 5.143516556418882928E-16, 4.999999999999998224 ) ) ;
#220 = FACE_OUTER_BOUND ( 'NONE', #1, .T. ) ;
#221 = DIRECTION ( 'NONE',  ( -1.000000000000000000, 0.000000000000000000, 0.000000000000000000 ) ) ;
#222 = ADVANCED_FACE ( 'NONE', ( #100 ), #259, .F. ) ;
#223 = PERSON_AND_ORGANIZATION ( #172, #123 ) ;
#224 = ORIENTED_EDGE ( 'NONE', *, *, #174, .F. ) ;
#225 = APPLICATION_CONTEXT ( 'configuration controlled 3d designs of mechanical parts and assemblies' ) ;
#226 = CIRCLE ( 'NONE', #262, 7.000000000000000000 ) ;
#227 = AXIS2_PLACEMENT_3D ( 'NONE', #173, #218, #8 ) ;
#228 =( NAMED_UNIT ( * ) SI_UNIT ( $, .STERADIAN. ) SOLID_ANGLE_UNIT ( ) );
#229 = EDGE_LOOP ( 'NONE', ( #130, #2, #67, #37 ) ) ;
#230 = APPROVAL_STATUS ( 'not_yet_approved' ) ;
#231 = APPLICATION_CONTEXT ( 'configuration controlled 3d designs of mechanical parts and assemblies' ) ;
#232 = CARTESIAN_POINT ( 'NONE',  ( 4.200000000000000178, 0.000000000000000000, 4.999999999999998224 ) ) ;
#233 = CARTESIAN_POINT ( 'NONE',  ( 0.000000000000000000, 0.000000000000000000, 130.0000000000000000 ) ) ;
#234 = DIRECTION ( 'NONE',  ( 1.000000000000000000, 0.000000000000000000, 0.000000000000000000 ) ) ;
#235 = EDGE_LOOP ( 'NONE', ( #304, #82, #43, #275 ) ) ;
#236 = ORIENTED_EDGE ( 'NONE', *, *, #168, .F. ) ;
#237 = PRODUCT_RELATED_PRODUCT_CATEGORY ( 'detail', '', ( #164 ) ) ;
#238 = DIRECTION ( 'NONE',  ( 1.000000000000000000, 0.000000000000000000, 0.000000000000000000 ) ) ;
#239 = AXIS2_PLACEMENT_3D ( 'NONE', #30, #177, #59 ) ;
#240 = CC_DESIGN_APPROVAL ( #48, ( #99 ) ) ;
#241 = DIRECTION ( 'NONE',  ( 0.000000000000000000, 0.000000000000000000, 1.000000000000000000 ) ) ;
#242 = DIRECTION ( 'NONE',  ( 0.000000000000000000, -1.000000000000000000, 0.000000000000000000 ) ) ;
#243 = DIRECTION ( 'NONE',  ( -0.000000000000000000, -0.000000000000000000, -1.000000000000000000 ) ) ;
#244 = PRODUCT_DEFINITION_FORMATION_WITH_SPECIFIED_SOURCE ( 'LIBOVOLNÝ', '', #164, .NOT_KNOWN. ) ;
#245 = PERSON_AND_ORGANIZATION_ROLE ( 'design_supplier' ) ;
#246 = APPLICATION_PROTOCOL_DEFINITION ( 'international standard', 'config_control_design', 1994, #231 ) ;
#247 = VERTEX_POINT ( 'NONE', #219 ) ;
#248 = CARTESIAN_POINT ( 'NONE',  ( 0.000000000000000000, 0.000000000000000000, 0.000000000000000000 ) ) ;
#249 = VERTEX_POINT ( 'NONE', #54 ) ;
#250 = CC_DESIGN_PERSON_AND_ORGANIZATION_ASSIGNMENT ( #15, #83, ( #99 ) ) ;
#251 = VECTOR ( 'NONE', #51, 1000.000000000000000 ) ;
#252 = DIRECTION ( 'NONE',  ( -0.000000000000000000, -0.000000000000000000, -1.000000000000000000 ) ) ;
#253 = EDGE_CURVE ( 'NONE', #61, #94, #56, .T. ) ;
#254 = DIRECTION ( 'NONE',  ( 0.000000000000000000, 0.000000000000000000, 1.000000000000000000 ) ) ;
#255 = CARTESIAN_POINT ( 'NONE',  ( 0.000000000000000000, 0.000000000000000000, 5.199999999999996625 ) ) ;
#256 = FACE_OUTER_BOUND ( 'NONE', #39, .T. ) ;
#257 = UNCERTAINTY_MEASURE_WITH_UNIT (LENGTH_MEASURE( 1.000000000000000082E-05 ), #182, 'distance_accuracy_value', 'NONE');
#258 = FACE_OUTER_BOUND ( 'NONE', #132, .T. ) ;
#259 = PLANE ( 'NONE',  #102 ) ;
#260 = EDGE_CURVE ( 'NONE', #158, #206, #226, .T. ) ;
#261 = DIRECTION ( 'NONE',  ( 1.000000000000000000, 0.000000000000000000, -0.000000000000000000 ) ) ;
#262 = AXIS2_PLACEMENT_3D ( 'NONE', #122, #31, #217 ) ;
#263 = APPROVAL_PERSON_ORGANIZATION ( #205, #197, #154 ) ;
#264 = DIRECTION ( 'NONE',  ( 0.000000000000000000, 0.000000000000000000, 1.000000000000000000 ) ) ;
#265 = FACE_OUTER_BOUND ( 'NONE', #156, .T. ) ;
#266 = CARTESIAN_POINT ( 'NONE',  ( 0.000000000000000000, 0.000000000000000000, 130.0000000000000000 ) ) ;
#267 = AXIS2_PLACEMENT_3D ( 'NONE', #141, #114, #234 ) ;
#268 = CALENDAR_DATE ( 2022, 7, 7 ) ;
#269 = AXIS2_PLACEMENT_3D ( 'NONE', #248, #129, #38 ) ;
#270 = APPROVAL_ROLE ( '' ) ;
#271 = ADVANCED_FACE ( 'NONE', ( #7, #178 ), #195, .T. ) ;
#272 = APPROVAL_ROLE ( '' ) ;
#273 = AXIS2_PLACEMENT_3D ( 'NONE', #150, #242, #28 ) ;
#274 = CALENDAR_DATE ( 2022, 7, 7 ) ;
#275 = ORIENTED_EDGE ( 'NONE', *, *, #118, .F. ) ;
#276 = DIRECTION ( 'NONE',  ( 1.000000000000000000, 0.000000000000000000, 0.000000000000000000 ) ) ;
#277 = EDGE_CURVE ( 'NONE', #16, #61, #292, .T. ) ;
#278 = APPROVAL_DATE_TIME ( #284, #165 ) ;
#279 = ORIENTED_EDGE ( 'NONE', *, *, #142, .T. ) ;
#280 = VECTOR ( 'NONE', #10, 1000.000000000000000 ) ;
#281 = LOCAL_TIME ( 12, 3, 55.00000000000000000, #60 ) ;
#282 = CC_DESIGN_PERSON_AND_ORGANIZATION_ASSIGNMENT ( #199, #301, ( #244 ) ) ;
#283 = EDGE_LOOP ( 'NONE', ( #85, #208, #302, #106 ) ) ;
#284 = DATE_AND_TIME ( #159, #203 ) ;
#285 = DIRECTION ( 'NONE',  ( 0.000000000000000000, 0.000000000000000000, 1.000000000000000000 ) ) ;
#286 = TOROIDAL_SURFACE ( 'NONE', #151, 4.200000000000000178, 0.2000000000000000111 ) ;
#287 = ORIENTED_EDGE ( 'NONE', *, *, #277, .F. ) ;
#288 = APPROVAL_PERSON_ORGANIZATION ( #223, #165, #272 ) ;
#289 = CARTESIAN_POINT ( 'NONE',  ( 7.000000000000000000, 8.572527594031473190E-16, 5.000000000000000000 ) ) ;
#290 = CARTESIAN_POINT ( 'NONE',  ( -7.000000000000000000, 0.000000000000000000, 0.000000000000000000 ) ) ;
#291 = CYLINDRICAL_SURFACE ( 'NONE', #227, 7.000000000000000000 ) ;
#292 = CIRCLE ( 'NONE', #188, 4.000000000000000000 ) ;
#293 = LINE ( 'NONE', #126, #280 ) ;
#294 = CARTESIAN_POINT ( 'NONE',  ( 0.000000000000000000, 0.000000000000000000, 5.000000000000000000 ) ) ;
#295 = PERSON_AND_ORGANIZATION_ROLE ( 'classification_officer' ) ;
#296 = VECTOR ( 'NONE', #11, 1000.000000000000000 ) ;
#297 = CC_DESIGN_DATE_AND_TIME_ASSIGNMENT ( #185, #298, ( #148 ) ) ;
#298 = DATE_TIME_ROLE ( 'classification_date' ) ;
#299 = ORIENTED_EDGE ( 'NONE', *, *, #14, .F. ) ;
#300 = APPROVAL_DATE_TIME ( #303, #48 ) ;
#301 = PERSON_AND_ORGANIZATION_ROLE ( 'creator' ) ;
#302 = ORIENTED_EDGE ( 'NONE', *, *, #90, .T. ) ;
#303 = DATE_AND_TIME ( #108, #45 ) ;
#304 = ORIENTED_EDGE ( 'NONE', *, *, #305, .F. ) ;
#305 = EDGE_CURVE ( 'NONE', #16, #247, #110, .T. ) ;
#306 = EDGE_LOOP ( 'NONE', ( #236, #191 ) ) ;
#307 = CC_DESIGN_PERSON_AND_ORGANIZATION_ASSIGNMENT ( #84, #245, ( #244 ) ) ;
ENDSEC;
END-ISO-10303-21;
