ISO-10303-21;
HEADER;
FILE_DESCRIPTION (( 'STEP AP203' ),
    '1' );
FILE_NAME ('8a44.STEP',
    '2022-07-07T10:22:59',
    ( '' ),
    ( '' ),
    'SwSTEP 2.0',
    'SolidWorks 2019',
    '' );
FILE_SCHEMA (( 'CONFIG_CONTROL_DESIGN' ));
ENDSEC;

DATA;
#1 = CARTESIAN_POINT ( 'NONE',  ( 0.000000000000000000, 0.000000000000000000, 633.0000000000000000 ) ) ;
#2 = CC_DESIGN_APPROVAL ( #288, ( #143 ) ) ;
#3 = CARTESIAN_POINT ( 'NONE',  ( 0.000000000000000000, 0.000000000000000000, 0.000000000000000000 ) ) ;
#4 = CYLINDRICAL_SURFACE ( 'NONE', #141, 4.000000000000000000 ) ;
#5 = DIRECTION ( 'NONE',  ( 1.000000000000000000, 0.000000000000000000, 0.000000000000000000 ) ) ;
#6 = AXIS2_PLACEMENT_3D ( 'NONE', #38, #139, #93 ) ;
#7 =( GEOMETRIC_REPRESENTATION_CONTEXT ( 3 ) GLOBAL_UNCERTAINTY_ASSIGNED_CONTEXT ( ( #104 ) ) GLOBAL_UNIT_ASSIGNED_CONTEXT ( ( #240, #73, #9 ) ) REPRESENTATION_CONTEXT ( 'NONE', 'WORKASPACE' ) );
#8 = ORIENTED_EDGE ( 'NONE', *, *, #149, .T. ) ;
#9 =( NAMED_UNIT ( * ) SI_UNIT ( $, .STERADIAN. ) SOLID_ANGLE_UNIT ( ) );
#10 = COORDINATED_UNIVERSAL_TIME_OFFSET ( 1, 0, .AHEAD. ) ;
#11 = AXIS2_PLACEMENT_3D ( 'NONE', #22, #19, #252 ) ;
#12 = CC_DESIGN_SECURITY_CLASSIFICATION ( #80, ( #259 ) ) ;
#13 = APPLICATION_PROTOCOL_DEFINITION ( 'international standard', 'config_control_design', 1994, #96 ) ;
#14 = VERTEX_POINT ( 'NONE', #140 ) ;
#15 = CALENDAR_DATE ( 2022, 7, 7 ) ;
#16 = ORIENTED_EDGE ( 'NONE', *, *, #52, .F. ) ;
#17 = CIRCLE ( 'NONE', #190, 4.000000000000000000 ) ;
#18 = ORIENTED_EDGE ( 'NONE', *, *, #205, .F. ) ;
#19 = DIRECTION ( 'NONE',  ( 0.000000000000000000, 0.000000000000000000, 1.000000000000000000 ) ) ;
#20 = DIRECTION ( 'NONE',  ( 1.000000000000000000, 0.000000000000000000, 0.000000000000000000 ) ) ;
#21 = VECTOR ( 'NONE', #63, 1000.000000000000000 ) ;
#22 = CARTESIAN_POINT ( 'NONE',  ( 0.000000000000000000, 0.000000000000000000, 633.0000000000000000 ) ) ;
#23 = CIRCLE ( 'NONE', #244, 4.000000000000000000 ) ;
#24 = CYLINDRICAL_SURFACE ( 'NONE', #290, 2.100000000000000089 ) ;
#25 = CARTESIAN_POINT ( 'NONE',  ( 0.000000000000000000, 0.000000000000000000, 3.000000000000000000 ) ) ;
#26 = DIRECTION ( 'NONE',  ( -0.000000000000000000, -0.000000000000000000, -1.000000000000000000 ) ) ;
#27 = DIRECTION ( 'NONE',  ( 0.000000000000000000, 0.000000000000000000, 1.000000000000000000 ) ) ;
#28 = EDGE_CURVE ( 'NONE', #134, #85, #183, .T. ) ;
#29 = LINE ( 'NONE', #264, #147 ) ;
#30 = PERSON_AND_ORGANIZATION_ROLE ( 'design_supplier' ) ;
#31 = VERTEX_POINT ( 'NONE', #34 ) ;
#32 = SECURITY_CLASSIFICATION_LEVEL ( 'unclassified' ) ;
#33 = EDGE_CURVE ( 'NONE', #109, #210, #277, .T. ) ;
#34 = CARTESIAN_POINT ( 'NONE',  ( 2.100000000000000089, 2.571758278209441957E-16, 633.0000000000000000 ) ) ;
#35 = EDGE_LOOP ( 'NONE', ( #155, #106 ) ) ;
#36 = CIRCLE ( 'NONE', #243, 2.100000000000000089 ) ;
#37 = DIRECTION ( 'NONE',  ( 0.000000000000000000, 0.000000000000000000, 1.000000000000000000 ) ) ;
#38 = CARTESIAN_POINT ( 'NONE',  ( 0.000000000000000000, 0.000000000000000000, 3.199999999999980638 ) ) ;
#39 = DIRECTION ( 'NONE',  ( 0.000000000000000000, 0.000000000000000000, 1.000000000000000000 ) ) ;
#40 = ADVANCED_FACE ( 'NONE', ( #156 ), #133, .T. ) ;
#41 = DIRECTION ( 'NONE',  ( -1.000000000000000000, 0.000000000000000000, 0.000000000000000000 ) ) ;
#42 = LOCAL_TIME ( 12, 22, 59.00000000000000000, #10 ) ;
#43 = LINE ( 'NONE', #146, #275 ) ;
#44 = CC_DESIGN_PERSON_AND_ORGANIZATION_ASSIGNMENT ( #103, #219, ( #64 ) ) ;
#45 = CARTESIAN_POINT ( 'NONE',  ( 0.000000000000000000, 0.000000000000000000, 3.000000000000000000 ) ) ;
#46 = DIRECTION ( 'NONE',  ( 1.000000000000000000, 0.000000000000000000, -0.000000000000000000 ) ) ;
#47 = AXIS2_PLACEMENT_3D ( 'NONE', #117, #235, #157 ) ;
#48 = ADVANCED_FACE ( 'NONE', ( #282 ), #111, .T. ) ;
#49 = CIRCLE ( 'NONE', #281, 0.2000000000000000944 ) ;
#50 = CARTESIAN_POINT ( 'NONE',  ( 0.000000000000000000, 0.000000000000000000, 3.199999999999980638 ) ) ;
#51 = DATE_AND_TIME ( #174, #269 ) ;
#52 = EDGE_CURVE ( 'NONE', #227, #31, #170, .T. ) ;
#53 = ADVANCED_FACE ( 'NONE', ( #207 ), #185, .F. ) ;
#54 = ORIENTED_EDGE ( 'NONE', *, *, #162, .T. ) ;
#55 = MECHANICAL_CONTEXT ( 'NONE', #96, 'mechanical' ) ;
#56 = VERTEX_POINT ( 'NONE', #112 ) ;
#57 = PERSON_AND_ORGANIZATION_ROLE ( 'creator' ) ;
#58 = COORDINATED_UNIVERSAL_TIME_OFFSET ( 1, 0, .AHEAD. ) ;
#59 = CIRCLE ( 'NONE', #220, 0.2000000000000000944 ) ;
#60 = DIRECTION ( 'NONE',  ( 1.000000000000000000, 0.000000000000000000, 0.000000000000000000 ) ) ;
#61 = ORIENTED_EDGE ( 'NONE', *, *, #83, .F. ) ;
#62 = ADVANCED_FACE ( 'NONE', ( #87 ), #209, .F. ) ;
#63 = DIRECTION ( 'NONE',  ( -0.000000000000000000, -0.000000000000000000, -1.000000000000000000 ) ) ;
#64 = PRODUCT ( '8a44', '8a44', '', ( #55 ) ) ;
#65 = AXIS2_PLACEMENT_3D ( 'NONE', #260, #69, #46 ) ;
#66 = CARTESIAN_POINT ( 'NONE',  ( -2.100000000000000089, 0.000000000000000000, 3.199999999999980638 ) ) ;
#67 = AXIS2_PLACEMENT_3D ( 'NONE', #121, #283, #122 ) ;
#68 = CARTESIAN_POINT ( 'NONE',  ( 0.000000000000000000, 0.000000000000000000, 3.000000000000000000 ) ) ;
#69 = DIRECTION ( 'NONE',  ( 0.000000000000000000, 0.000000000000000000, 1.000000000000000000 ) ) ;
#70 = CARTESIAN_POINT ( 'NONE',  ( 0.000000000000000000, 0.000000000000000000, 3.000000000000000000 ) ) ;
#71 = DIRECTION ( 'NONE',  ( 0.000000000000000000, 0.000000000000000000, 1.000000000000000000 ) ) ;
#72 = DIRECTION ( 'NONE',  ( -0.000000000000000000, -0.000000000000000000, -1.000000000000000000 ) ) ;
#73 =( NAMED_UNIT ( * ) PLANE_ANGLE_UNIT ( ) SI_UNIT ( $, .RADIAN. ) );
#74 = PRODUCT_DEFINITION_SHAPE ( 'NONE', 'NONE',  #143 ) ;
#75 = APPROVAL_DATE_TIME ( #199, #288 ) ;
#76 = DIRECTION ( 'NONE',  ( 0.000000000000000000, 0.000000000000000000, 1.000000000000000000 ) ) ;
#77 = VERTEX_POINT ( 'NONE', #66 ) ;
#78 = SHAPE_DEFINITION_REPRESENTATION ( #74, #86 ) ;
#79 = EDGE_LOOP ( 'NONE', ( #206, #273, #278, #54 ) ) ;
#80 = SECURITY_CLASSIFICATION ( '', '', #32 ) ;
#81 = ORIENTED_EDGE ( 'NONE', *, *, #208, .F. ) ;
#82 = CALENDAR_DATE ( 2022, 7, 7 ) ;
#83 = EDGE_CURVE ( 'NONE', #31, #227, #36, .T. ) ;
#84 = AXIS2_PLACEMENT_3D ( 'NONE', #50, #71, #5 ) ;
#85 = VERTEX_POINT ( 'NONE', #211 ) ;
#86 = ADVANCED_BREP_SHAPE_REPRESENTATION ( '8a44', ( #138, #286 ), #7 ) ;
#87 = FACE_OUTER_BOUND ( 'NONE', #35, .T. ) ;
#88 = CARTESIAN_POINT ( 'NONE',  ( 0.000000000000000000, 0.000000000000000000, 3.199999999999980638 ) ) ;
#89 = AXIS2_PLACEMENT_3D ( 'NONE', #92, #187, #163 ) ;
#90 = EDGE_CURVE ( 'NONE', #14, #77, #285, .T. ) ;
#91 = AXIS2_PLACEMENT_3D ( 'NONE', #45, #99, #194 ) ;
#92 = CARTESIAN_POINT ( 'NONE',  ( 0.000000000000000000, 0.000000000000000000, 3.000000000000000000 ) ) ;
#93 = DIRECTION ( 'NONE',  ( 1.000000000000000000, 0.000000000000000000, 0.000000000000000000 ) ) ;
#94 = DIRECTION ( 'NONE',  ( -1.000000000000000000, 1.224646799147353207E-16, 0.000000000000000000 ) ) ;
#95 = EDGE_CURVE ( 'NONE', #56, #110, #151, .T. ) ;
#96 = APPLICATION_CONTEXT ( 'configuration controlled 3d designs of mechanical parts and assemblies' ) ;
#97 = FACE_OUTER_BOUND ( 'NONE', #79, .T. ) ;
#98 = FACE_OUTER_BOUND ( 'NONE', #231, .T. ) ;
#99 = DIRECTION ( 'NONE',  ( -0.000000000000000000, -0.000000000000000000, -1.000000000000000000 ) ) ;
#100 = EDGE_CURVE ( 'NONE', #109, #134, #17, .T. ) ;
#101 = CLOSED_SHELL ( 'NONE', ( #166, #202, #271, #247, #172, #62, #40, #48, #53 ) ) ;
#102 = AXIS2_PLACEMENT_3D ( 'NONE', #70, #262, #167 ) ;
#103 = PERSON_AND_ORGANIZATION ( #253, #214 ) ;
#104 = UNCERTAINTY_MEASURE_WITH_UNIT (LENGTH_MEASURE( 1.000000000000000082E-05 ), #240, 'distance_accuracy_value', 'NONE');
#105 = PERSON_AND_ORGANIZATION ( #253, #214 ) ;
#106 = ORIENTED_EDGE ( 'NONE', *, *, #115, .F. ) ;
#107 = APPROVAL_STATUS ( 'not_yet_approved' ) ;
#108 = ORIENTED_EDGE ( 'NONE', *, *, #33, .T. ) ;
#109 = VERTEX_POINT ( 'NONE', #230 ) ;
#110 = VERTEX_POINT ( 'NONE', #119 ) ;
#111 = PLANE ( 'NONE',  #11 ) ;
#112 = CARTESIAN_POINT ( 'NONE',  ( -2.300000000000000266, 2.816687638038912549E-16, 2.999999999999990674 ) ) ;
#113 = APPROVAL ( #124, 'NEURÈENÝ' ) ;
#114 = DIRECTION ( 'NONE',  ( 1.000000000000000000, 0.000000000000000000, 0.000000000000000000 ) ) ;
#115 = EDGE_CURVE ( 'NONE', #210, #85, #120, .T. ) ;
#116 = TOROIDAL_SURFACE ( 'NONE', #67, 2.300000000000000266, 0.2000000000000000111 ) ;
#117 = CARTESIAN_POINT ( 'NONE',  ( 0.000000000000000000, 0.000000000000000000, 633.0000000000000000 ) ) ;
#118 = DIRECTION ( 'NONE',  ( 0.000000000000000000, 0.000000000000000000, -1.000000000000000000 ) ) ;
#119 = CARTESIAN_POINT ( 'NONE',  ( 2.300000000000000266, 0.000000000000000000, 2.999999999999990674 ) ) ;
#120 = CIRCLE ( 'NONE', #191, 4.000000000000000000 ) ;
#121 = CARTESIAN_POINT ( 'NONE',  ( 0.000000000000000000, 0.000000000000000000, 3.199999999999980638 ) ) ;
#122 = DIRECTION ( 'NONE',  ( 1.000000000000000000, 0.000000000000000000, 0.000000000000000000 ) ) ;
#123 = CC_DESIGN_APPROVAL ( #113, ( #259 ) ) ;
#124 = APPROVAL_STATUS ( 'not_yet_approved' ) ;
#125 = EDGE_LOOP ( 'NONE', ( #128, #234, #300, #304 ) ) ;
#126 = DATE_TIME_ROLE ( 'creation_date' ) ;
#127 = EDGE_LOOP ( 'NONE', ( #18, #16, #245, #198 ) ) ;
#128 = ORIENTED_EDGE ( 'NONE', *, *, #159, .F. ) ;
#129 = AXIS2_PLACEMENT_3D ( 'NONE', #186, #184, #280 ) ;
#130 = LOCAL_TIME ( 12, 22, 59.00000000000000000, #267 ) ;
#131 = APPROVAL_ROLE ( '' ) ;
#132 = ORIENTED_EDGE ( 'NONE', *, *, #83, .T. ) ;
#133 = CYLINDRICAL_SURFACE ( 'NONE', #47, 2.100000000000000089 ) ;
#134 = VERTEX_POINT ( 'NONE', #215 ) ;
#135 = AXIS2_PLACEMENT_3D ( 'NONE', #88, #306, #137 ) ;
#136 = APPROVAL_PERSON_ORGANIZATION ( #173, #113, #248 ) ;
#137 = DIRECTION ( 'NONE',  ( 1.000000000000000000, 0.000000000000000000, 0.000000000000000000 ) ) ;
#138 = MANIFOLD_SOLID_BREP ( 'Zaoblit1', #101 ) ;
#139 = DIRECTION ( 'NONE',  ( 0.000000000000000000, 0.000000000000000000, 1.000000000000000000 ) ) ;
#140 = CARTESIAN_POINT ( 'NONE',  ( 2.100000000000000089, 2.571758278209441957E-16, 3.199999999999980638 ) ) ;
#141 = AXIS2_PLACEMENT_3D ( 'NONE', #261, #148, #239 ) ;
#142 = CARTESIAN_POINT ( 'NONE',  ( 2.300000000000000266, 0.000000000000000000, 3.199999999999980638 ) ) ;
#143 = PRODUCT_DEFINITION ( 'NEZNÁMÝ', '', #259, #266 ) ;
#144 = DIRECTION ( 'NONE',  ( 1.000000000000000000, 0.000000000000000000, 0.000000000000000000 ) ) ;
#145 = APPLICATION_CONTEXT ( 'configuration controlled 3d designs of mechanical parts and assemblies' ) ;
#146 = CARTESIAN_POINT ( 'NONE',  ( -2.100000000000000089, 0.000000000000000000, 633.0000000000000000 ) ) ;
#147 = VECTOR ( 'NONE', #189, 1000.000000000000000 ) ;
#148 = DIRECTION ( 'NONE',  ( -0.000000000000000000, -0.000000000000000000, -1.000000000000000000 ) ) ;
#149 = EDGE_CURVE ( 'NONE', #134, #109, #263, .T. ) ;
#150 = CALENDAR_DATE ( 2022, 7, 7 ) ;
#151 = CIRCLE ( 'NONE', #89, 2.300000000000000266 ) ;
#152 = ORIENTED_EDGE ( 'NONE', *, *, #52, .T. ) ;
#153 = CC_DESIGN_APPROVAL ( #218, ( #80 ) ) ;
#154 = PERSON_AND_ORGANIZATION ( #253, #214 ) ;
#155 = ORIENTED_EDGE ( 'NONE', *, *, #162, .F. ) ;
#156 = FACE_OUTER_BOUND ( 'NONE', #127, .T. ) ;
#157 = DIRECTION ( 'NONE',  ( -1.000000000000000000, 0.000000000000000000, 0.000000000000000000 ) ) ;
#158 = CC_DESIGN_DATE_AND_TIME_ASSIGNMENT ( #51, #242, ( #80 ) ) ;
#159 = EDGE_CURVE ( 'NONE', #77, #56, #59, .T. ) ;
#160 = CARTESIAN_POINT ( 'NONE',  ( 0.000000000000000000, 0.000000000000000000, 633.0000000000000000 ) ) ;
#161 = CARTESIAN_POINT ( 'NONE',  ( 0.000000000000000000, 0.000000000000000000, 633.0000000000000000 ) ) ;
#162 = EDGE_CURVE ( 'NONE', #85, #210, #23, .T. ) ;
#163 = DIRECTION ( 'NONE',  ( 1.000000000000000000, 0.000000000000000000, 0.000000000000000000 ) ) ;
#164 = DIRECTION ( 'NONE',  ( 1.000000000000000000, 0.000000000000000000, 0.000000000000000000 ) ) ;
#165 = PRODUCT_RELATED_PRODUCT_CATEGORY ( 'detail', '', ( #64 ) ) ;
#166 = ADVANCED_FACE ( 'NONE', ( #216 ), #116, .F. ) ;
#167 = DIRECTION ( 'NONE',  ( -1.000000000000000000, 0.000000000000000000, 0.000000000000000000 ) ) ;
#168 = FACE_OUTER_BOUND ( 'NONE', #175, .T. ) ;
#169 = DIRECTION ( 'NONE',  ( 0.000000000000000000, 0.000000000000000000, 1.000000000000000000 ) ) ;
#170 = CIRCLE ( 'NONE', #274, 2.100000000000000089 ) ;
#171 = FACE_BOUND ( 'NONE', #225, .T. ) ;
#172 = ADVANCED_FACE ( 'NONE', ( #171, #258 ), #241, .T. ) ;
#173 = PERSON_AND_ORGANIZATION ( #253, #214 ) ;
#174 = CALENDAR_DATE ( 2022, 7, 7 ) ;
#175 = EDGE_LOOP ( 'NONE', ( #293, #108, #299, #180 ) ) ;
#176 = APPROVAL_STATUS ( 'not_yet_approved' ) ;
#177 = ORIENTED_EDGE ( 'NONE', *, *, #95, .T. ) ;
#178 = APPROVAL_PERSON_ORGANIZATION ( #270, #218, #294 ) ;
#179 = DATE_AND_TIME ( #201, #130 ) ;
#180 = ORIENTED_EDGE ( 'NONE', *, *, #28, .F. ) ;
#181 = APPROVAL_PERSON_ORGANIZATION ( #249, #288, #131 ) ;
#182 = EDGE_LOOP ( 'NONE', ( #250, #200, #233, #81 ) ) ;
#183 = LINE ( 'NONE', #301, #289 ) ;
#184 = DIRECTION ( 'NONE',  ( 0.000000000000000000, 0.000000000000000000, 1.000000000000000000 ) ) ;
#185 = TOROIDAL_SURFACE ( 'NONE', #135, 2.300000000000000266, 0.2000000000000000111 ) ;
#186 = CARTESIAN_POINT ( 'NONE',  ( 0.000000000000000000, 0.000000000000000000, 0.000000000000000000 ) ) ;
#187 = DIRECTION ( 'NONE',  ( -0.000000000000000000, -0.000000000000000000, -1.000000000000000000 ) ) ;
#188 = CC_DESIGN_PERSON_AND_ORGANIZATION_ASSIGNMENT ( #105, #246, ( #80 ) ) ;
#189 = DIRECTION ( 'NONE',  ( -0.000000000000000000, -0.000000000000000000, -1.000000000000000000 ) ) ;
#190 = AXIS2_PLACEMENT_3D ( 'NONE', #68, #39, #60 ) ;
#191 = AXIS2_PLACEMENT_3D ( 'NONE', #3, #169, #287 ) ;
#192 = CYLINDRICAL_SURFACE ( 'NONE', #102, 4.000000000000000000 ) ;
#193 = CC_DESIGN_DATE_AND_TIME_ASSIGNMENT ( #229, #126, ( #143 ) ) ;
#194 = DIRECTION ( 'NONE',  ( 1.000000000000000000, 0.000000000000000000, 0.000000000000000000 ) ) ;
#195 = COORDINATED_UNIVERSAL_TIME_OFFSET ( 1, 0, .AHEAD. ) ;
#196 = CIRCLE ( 'NONE', #84, 2.100000000000000089 ) ;
#197 = APPLICATION_PROTOCOL_DEFINITION ( 'international standard', 'config_control_design', 1994, #145 ) ;
#198 = ORIENTED_EDGE ( 'NONE', *, *, #257, .T. ) ;
#199 = DATE_AND_TIME ( #150, #42 ) ;
#200 = ORIENTED_EDGE ( 'NONE', *, *, #159, .T. ) ;
#201 = CALENDAR_DATE ( 2022, 7, 7 ) ;
#202 = ADVANCED_FACE ( 'NONE', ( #98 ), #24, .T. ) ;
#203 = DATE_AND_TIME ( #15, #232 ) ;
#204 = ORIENTED_EDGE ( 'NONE', *, *, #276, .T. ) ;
#205 = EDGE_CURVE ( 'NONE', #31, #14, #29, .T. ) ;
#206 = ORIENTED_EDGE ( 'NONE', *, *, #33, .F. ) ;
#207 = FACE_OUTER_BOUND ( 'NONE', #125, .T. ) ;
#208 = EDGE_CURVE ( 'NONE', #14, #110, #49, .T. ) ;
#209 = PLANE ( 'NONE',  #129 ) ;
#210 = VERTEX_POINT ( 'NONE', #237 ) ;
#211 = CARTESIAN_POINT ( 'NONE',  ( -4.000000000000000000, 0.000000000000000000, 0.000000000000000000 ) ) ;
#212 = DIRECTION ( 'NONE',  ( 1.224646799147353207E-16, 1.000000000000000000, -0.000000000000000000 ) ) ;
#213 = CARTESIAN_POINT ( 'NONE',  ( 0.000000000000000000, 0.000000000000000000, 0.000000000000000000 ) ) ;
#214 = ORGANIZATION ( 'NEURÈENÝ', 'NEURÈENÝ', '' ) ;
#215 = CARTESIAN_POINT ( 'NONE',  ( -4.000000000000000000, 0.000000000000000000, 3.000000000000000000 ) ) ;
#216 = FACE_OUTER_BOUND ( 'NONE', #182, .T. ) ;
#217 = CARTESIAN_POINT ( 'NONE',  ( -2.100000000000000089, 0.000000000000000000, 633.0000000000000000 ) ) ;
#218 = APPROVAL ( #107, 'NEURÈENÝ' ) ;
#219 = PERSON_AND_ORGANIZATION_ROLE ( 'design_owner' ) ;
#220 = AXIS2_PLACEMENT_3D ( 'NONE', #284, #212, #94 ) ;
#221 = ORIENTED_EDGE ( 'NONE', *, *, #205, .T. ) ;
#222 = APPROVAL_DATE_TIME ( #203, #113 ) ;
#223 = ORIENTED_EDGE ( 'NONE', *, *, #100, .T. ) ;
#224 = COORDINATED_UNIVERSAL_TIME_OFFSET ( 1, 0, .AHEAD. ) ;
#225 = EDGE_LOOP ( 'NONE', ( #204, #177 ) ) ;
#226 = APPROVAL_DATE_TIME ( #179, #218 ) ;
#227 = VERTEX_POINT ( 'NONE', #217 ) ;
#228 = AXIS2_PLACEMENT_3D ( 'NONE', #25, #27, #144 ) ;
#229 = DATE_AND_TIME ( #82, #298 ) ;
#230 = CARTESIAN_POINT ( 'NONE',  ( 4.000000000000000000, 4.898587196589412829E-16, 3.000000000000000000 ) ) ;
#231 = EDGE_LOOP ( 'NONE', ( #61, #221, #251, #268 ) ) ;
#232 = LOCAL_TIME ( 12, 22, 59.00000000000000000, #195 ) ;
#233 = ORIENTED_EDGE ( 'NONE', *, *, #276, .F. ) ;
#234 = ORIENTED_EDGE ( 'NONE', *, *, #90, .F. ) ;
#235 = DIRECTION ( 'NONE',  ( -0.000000000000000000, -0.000000000000000000, -1.000000000000000000 ) ) ;
#236 = CIRCLE ( 'NONE', #91, 2.300000000000000266 ) ;
#237 = CARTESIAN_POINT ( 'NONE',  ( 4.000000000000000000, 4.898587196589412829E-16, 0.000000000000000000 ) ) ;
#238 = DIRECTION ( 'NONE',  ( 0.000000000000000000, 0.000000000000000000, 1.000000000000000000 ) ) ;
#239 = DIRECTION ( 'NONE',  ( -1.000000000000000000, 0.000000000000000000, 0.000000000000000000 ) ) ;
#240 =( LENGTH_UNIT ( ) NAMED_UNIT ( * ) SI_UNIT ( .MILLI., .METRE. ) );
#241 = PLANE ( 'NONE',  #65 ) ;
#242 = DATE_TIME_ROLE ( 'classification_date' ) ;
#243 = AXIS2_PLACEMENT_3D ( 'NONE', #161, #255, #20 ) ;
#244 = AXIS2_PLACEMENT_3D ( 'NONE', #213, #238, #164 ) ;
#245 = ORIENTED_EDGE ( 'NONE', *, *, #296, .T. ) ;
#246 = PERSON_AND_ORGANIZATION_ROLE ( 'classification_officer' ) ;
#247 = ADVANCED_FACE ( 'NONE', ( #97 ), #192, .T. ) ;
#248 = APPROVAL_ROLE ( '' ) ;
#249 = PERSON_AND_ORGANIZATION ( #253, #214 ) ;
#250 = ORIENTED_EDGE ( 'NONE', *, *, #257, .F. ) ;
#251 = ORIENTED_EDGE ( 'NONE', *, *, #90, .T. ) ;
#252 = DIRECTION ( 'NONE',  ( 1.000000000000000000, 0.000000000000000000, -0.000000000000000000 ) ) ;
#253 = PERSON ( 'NEURÈENÝ', 'NEURÈENÝ', 'NEURÈENÝ', ('NEURÈENÝ'), ('NEURÈENÝ'), ('NEURÈENÝ') ) ;
#254 = CC_DESIGN_PERSON_AND_ORGANIZATION_ASSIGNMENT ( #292, #30, ( #259 ) ) ;
#255 = DIRECTION ( 'NONE',  ( 0.000000000000000000, 0.000000000000000000, 1.000000000000000000 ) ) ;
#256 = EDGE_LOOP ( 'NONE', ( #8, #223 ) ) ;
#257 = EDGE_CURVE ( 'NONE', #77, #14, #196, .T. ) ;
#258 = FACE_OUTER_BOUND ( 'NONE', #256, .T. ) ;
#259 = PRODUCT_DEFINITION_FORMATION_WITH_SPECIFIED_SOURCE ( 'LIBOVOLNÝ', '', #64, .NOT_KNOWN. ) ;
#260 = CARTESIAN_POINT ( 'NONE',  ( 0.000000000000000000, 0.000000000000000000, 3.000000000000000000 ) ) ;
#261 = CARTESIAN_POINT ( 'NONE',  ( 0.000000000000000000, 0.000000000000000000, 3.000000000000000000 ) ) ;
#262 = DIRECTION ( 'NONE',  ( -0.000000000000000000, -0.000000000000000000, -1.000000000000000000 ) ) ;
#263 = CIRCLE ( 'NONE', #228, 4.000000000000000000 ) ;
#264 = CARTESIAN_POINT ( 'NONE',  ( 2.100000000000000089, 2.571758278209441957E-16, 633.0000000000000000 ) ) ;
#265 = CARTESIAN_POINT ( 'NONE',  ( 0.000000000000000000, 0.000000000000000000, 0.000000000000000000 ) ) ;
#266 = DESIGN_CONTEXT ( 'detailed design', #145, 'design' ) ;
#267 = COORDINATED_UNIVERSAL_TIME_OFFSET ( 1, 0, .AHEAD. ) ;
#268 = ORIENTED_EDGE ( 'NONE', *, *, #296, .F. ) ;
#269 = LOCAL_TIME ( 12, 22, 59.00000000000000000, #224 ) ;
#270 = PERSON_AND_ORGANIZATION ( #253, #214 ) ;
#271 = ADVANCED_FACE ( 'NONE', ( #168 ), #4, .T. ) ;
#272 = PERSON_AND_ORGANIZATION ( #253, #214 ) ;
#273 = ORIENTED_EDGE ( 'NONE', *, *, #149, .F. ) ;
#274 = AXIS2_PLACEMENT_3D ( 'NONE', #160, #37, #114 ) ;
#275 = VECTOR ( 'NONE', #26, 1000.000000000000000 ) ;
#276 = EDGE_CURVE ( 'NONE', #110, #56, #236, .T. ) ;
#277 = LINE ( 'NONE', #302, #21 ) ;
#278 = ORIENTED_EDGE ( 'NONE', *, *, #28, .T. ) ;
#279 = CC_DESIGN_PERSON_AND_ORGANIZATION_ASSIGNMENT ( #154, #291, ( #259 ) ) ;
#280 = DIRECTION ( 'NONE',  ( 1.000000000000000000, 0.000000000000000000, -0.000000000000000000 ) ) ;
#281 = AXIS2_PLACEMENT_3D ( 'NONE', #142, #307, #118 ) ;
#282 = FACE_OUTER_BOUND ( 'NONE', #295, .T. ) ;
#283 = DIRECTION ( 'NONE',  ( 0.000000000000000000, 0.000000000000000000, 1.000000000000000000 ) ) ;
#284 = CARTESIAN_POINT ( 'NONE',  ( -2.300000000000000266, 2.816687638038912549E-16, 3.199999999999980638 ) ) ;
#285 = CIRCLE ( 'NONE', #6, 2.100000000000000089 ) ;
#286 = AXIS2_PLACEMENT_3D ( 'NONE', #265, #76, #297 ) ;
#287 = DIRECTION ( 'NONE',  ( 1.000000000000000000, 0.000000000000000000, 0.000000000000000000 ) ) ;
#288 = APPROVAL ( #176, 'NEURÈENÝ' ) ;
#289 = VECTOR ( 'NONE', #305, 1000.000000000000000 ) ;
#290 = AXIS2_PLACEMENT_3D ( 'NONE', #1, #72, #41 ) ;
#291 = PERSON_AND_ORGANIZATION_ROLE ( 'creator' ) ;
#292 = PERSON_AND_ORGANIZATION ( #253, #214 ) ;
#293 = ORIENTED_EDGE ( 'NONE', *, *, #100, .F. ) ;
#294 = APPROVAL_ROLE ( '' ) ;
#295 = EDGE_LOOP ( 'NONE', ( #152, #132 ) ) ;
#296 = EDGE_CURVE ( 'NONE', #227, #77, #43, .T. ) ;
#297 = DIRECTION ( 'NONE',  ( 1.000000000000000000, 0.000000000000000000, 0.000000000000000000 ) ) ;
#298 = LOCAL_TIME ( 12, 22, 59.00000000000000000, #58 ) ;
#299 = ORIENTED_EDGE ( 'NONE', *, *, #115, .T. ) ;
#300 = ORIENTED_EDGE ( 'NONE', *, *, #208, .T. ) ;
#301 = CARTESIAN_POINT ( 'NONE',  ( -4.000000000000000000, 0.000000000000000000, 3.000000000000000000 ) ) ;
#302 = CARTESIAN_POINT ( 'NONE',  ( 4.000000000000000000, 4.898587196589412829E-16, 3.000000000000000000 ) ) ;
#303 = CC_DESIGN_PERSON_AND_ORGANIZATION_ASSIGNMENT ( #272, #57, ( #143 ) ) ;
#304 = ORIENTED_EDGE ( 'NONE', *, *, #95, .F. ) ;
#305 = DIRECTION ( 'NONE',  ( -0.000000000000000000, -0.000000000000000000, -1.000000000000000000 ) ) ;
#306 = DIRECTION ( 'NONE',  ( 0.000000000000000000, 0.000000000000000000, 1.000000000000000000 ) ) ;
#307 = DIRECTION ( 'NONE',  ( 0.000000000000000000, -1.000000000000000000, 0.000000000000000000 ) ) ;
ENDSEC;
END-ISO-10303-21;
