ISO-10303-21;
HEADER;
FILE_DESCRIPTION (( 'STEP AP203' ),
    '1' );
FILE_NAME ('40e8.STEP',
    '2022-07-07T10:18:47',
    ( '' ),
    ( '' ),
    'SwSTEP 2.0',
    'SolidWorks 2019',
    '' );
FILE_SCHEMA (( 'CONFIG_CONTROL_DESIGN' ));
ENDSEC;

DATA;
#1 = DIRECTION ( 'NONE',  ( 0.000000000000000000, -1.000000000000000000, 0.000000000000000000 ) ) ;
#2 = DIRECTION ( 'NONE',  ( -0.000000000000000000, -0.000000000000000000, -1.000000000000000000 ) ) ;
#3 = DIRECTION ( 'NONE',  ( -0.000000000000000000, -0.000000000000000000, -1.000000000000000000 ) ) ;
#4 = CARTESIAN_POINT ( 'NONE',  ( 0.000000000000000000, 0.000000000000000000, 0.000000000000000000 ) ) ;
#5 = PLANE ( 'NONE',  #79 ) ;
#6 = VECTOR ( 'NONE', #19, 1000.000000000000000 ) ;
#7 = CARTESIAN_POINT ( 'NONE',  ( 0.000000000000000000, 0.000000000000000000, 0.000000000000000000 ) ) ;
#8 = COORDINATED_UNIVERSAL_TIME_OFFSET ( 1, 0, .AHEAD. ) ;
#9 = COORDINATED_UNIVERSAL_TIME_OFFSET ( 1, 0, .AHEAD. ) ;
#10 = CIRCLE ( 'NONE', #232, 2.500000000000000000 ) ;
#11 = CC_DESIGN_DATE_AND_TIME_ASSIGNMENT ( #225, #224, ( #100 ) ) ;
#12 = PERSON_AND_ORGANIZATION ( #81, #52 ) ;
#13 = SECURITY_CLASSIFICATION_LEVEL ( 'unclassified' ) ;
#14 = ORIENTED_EDGE ( 'NONE', *, *, #274, .T. ) ;
#15 = AXIS2_PLACEMENT_3D ( 'NONE', #69, #1, #51 ) ;
#16 = AXIS2_PLACEMENT_3D ( 'NONE', #4, #186, #278 ) ;
#17 = LOCAL_TIME ( 12, 18, 47.00000000000000000, #9 ) ;
#18 = AXIS2_PLACEMENT_3D ( 'NONE', #65, #166, #73 ) ;
#19 = DIRECTION ( 'NONE',  ( -0.000000000000000000, -0.000000000000000000, -1.000000000000000000 ) ) ;
#20 = CARTESIAN_POINT ( 'NONE',  ( 0.000000000000000000, 0.000000000000000000, 3.199999999999980638 ) ) ;
#21 = EDGE_CURVE ( 'NONE', #209, #118, #249, .T. ) ;
#22 = FACE_BOUND ( 'NONE', #88, .T. ) ;
#23 = AXIS2_PLACEMENT_3D ( 'NONE', #7, #296, #297 ) ;
#24 = CIRCLE ( 'NONE', #16, 5.000000000000000000 ) ;
#25 = ORIENTED_EDGE ( 'NONE', *, *, #175, .F. ) ;
#26 = FACE_OUTER_BOUND ( 'NONE', #85, .T. ) ;
#27 = CARTESIAN_POINT ( 'NONE',  ( -2.500000000000000000, 0.000000000000000000, 3.199999999999980638 ) ) ;
#28 = DIRECTION ( 'NONE',  ( 1.000000000000000000, 0.000000000000000000, 0.000000000000000000 ) ) ;
#29 = CARTESIAN_POINT ( 'NONE',  ( -2.500000000000000000, 0.000000000000000000, 633.0000000000000000 ) ) ;
#30 = DIRECTION ( 'NONE',  ( -0.000000000000000000, -0.000000000000000000, -1.000000000000000000 ) ) ;
#31 = DIRECTION ( 'NONE',  ( -0.000000000000000000, -0.000000000000000000, -1.000000000000000000 ) ) ;
#32 = PERSON_AND_ORGANIZATION ( #81, #52 ) ;
#33 = DATE_TIME_ROLE ( 'classification_date' ) ;
#34 = VECTOR ( 'NONE', #243, 1000.000000000000000 ) ;
#35 = EDGE_CURVE ( 'NONE', #110, #250, #119, .T. ) ;
#36 = ORIENTED_EDGE ( 'NONE', *, *, #89, .T. ) ;
#37 = PRODUCT ( '40e8', '40e8', '', ( #80 ) ) ;
#38 = ORIENTED_EDGE ( 'NONE', *, *, #165, .F. ) ;
#39 = AXIS2_PLACEMENT_3D ( 'NONE', #77, #122, #285 ) ;
#40 = ORIENTED_EDGE ( 'NONE', *, *, #21, .T. ) ;
#41 = CARTESIAN_POINT ( 'NONE',  ( -2.700000000000000178, 3.306546357697853733E-16, 2.999999999999990674 ) ) ;
#42 = EDGE_CURVE ( 'NONE', #209, #284, #107, .T. ) ;
#43 = DIRECTION ( 'NONE',  ( 1.000000000000000000, 0.000000000000000000, 0.000000000000000000 ) ) ;
#44 = FACE_OUTER_BOUND ( 'NONE', #114, .T. ) ;
#45 = CYLINDRICAL_SURFACE ( 'NONE', #155, 2.500000000000000000 ) ;
#46 = TOROIDAL_SURFACE ( 'NONE', #76, 2.700000000000000178, 0.2000000000000000111 ) ;
#47 = ORIENTED_EDGE ( 'NONE', *, *, #304, .F. ) ;
#48 = CC_DESIGN_APPROVAL ( #215, ( #227 ) ) ;
#49 = DIRECTION ( 'NONE',  ( 1.000000000000000000, 0.000000000000000000, 0.000000000000000000 ) ) ;
#50 = CYLINDRICAL_SURFACE ( 'NONE', #185, 5.000000000000000000 ) ;
#51 = DIRECTION ( 'NONE',  ( 0.000000000000000000, 0.000000000000000000, -1.000000000000000000 ) ) ;
#52 = ORGANIZATION ( 'NEURÈENÝ', 'NEURÈENÝ', '' ) ;
#53 = CARTESIAN_POINT ( 'NONE',  ( 0.000000000000000000, 0.000000000000000000, 633.0000000000000000 ) ) ;
#54 = CARTESIAN_POINT ( 'NONE',  ( 0.000000000000000000, 0.000000000000000000, 633.0000000000000000 ) ) ;
#55 = CARTESIAN_POINT ( 'NONE',  ( 2.500000000000000000, 3.061616997868383141E-16, 633.0000000000000000 ) ) ;
#56 = CC_DESIGN_PERSON_AND_ORGANIZATION_ASSIGNMENT ( #103, #130, ( #100 ) ) ;
#57 = APPROVAL_ROLE ( '' ) ;
#58 = APPROVAL_STATUS ( 'not_yet_approved' ) ;
#59 = ADVANCED_FACE ( 'NONE', ( #44 ), #307, .T. ) ;
#60 = COORDINATED_UNIVERSAL_TIME_OFFSET ( 1, 0, .AHEAD. ) ;
#61 = APPROVAL_PERSON_ORGANIZATION ( #176, #221, #157 ) ;
#62 = ORIENTED_EDGE ( 'NONE', *, *, #274, .F. ) ;
#63 = ADVANCED_FACE ( 'NONE', ( #90 ), #91, .F. ) ;
#64 = DIRECTION ( 'NONE',  ( 0.000000000000000000, 0.000000000000000000, 1.000000000000000000 ) ) ;
#65 = CARTESIAN_POINT ( 'NONE',  ( 0.000000000000000000, 0.000000000000000000, 3.000000000000000000 ) ) ;
#66 = ADVANCED_BREP_SHAPE_REPRESENTATION ( '40e8', ( #237, #23 ), #158 ) ;
#67 = ORIENTED_EDGE ( 'NONE', *, *, #295, .F. ) ;
#68 = APPROVAL ( #132, 'NEURÈENÝ' ) ;
#69 = CARTESIAN_POINT ( 'NONE',  ( 2.700000000000000178, 0.000000000000000000, 3.199999999999980638 ) ) ;
#70 = APPROVAL_PERSON_ORGANIZATION ( #205, #68, #57 ) ;
#71 = CARTESIAN_POINT ( 'NONE',  ( 0.000000000000000000, 0.000000000000000000, 3.000000000000000000 ) ) ;
#72 = EDGE_LOOP ( 'NONE', ( #25, #84, #124, #208 ) ) ;
#73 = DIRECTION ( 'NONE',  ( 1.000000000000000000, 0.000000000000000000, 0.000000000000000000 ) ) ;
#74 = CARTESIAN_POINT ( 'NONE',  ( 0.000000000000000000, 0.000000000000000000, 0.000000000000000000 ) ) ;
#75 = DIRECTION ( 'NONE',  ( 1.000000000000000000, 0.000000000000000000, 0.000000000000000000 ) ) ;
#76 = AXIS2_PLACEMENT_3D ( 'NONE', #98, #253, #255 ) ;
#77 = CARTESIAN_POINT ( 'NONE',  ( 0.000000000000000000, 0.000000000000000000, 3.000000000000000000 ) ) ;
#78 = APPROVAL_DATE_TIME ( #198, #221 ) ;
#79 = AXIS2_PLACEMENT_3D ( 'NONE', #53, #64, #231 ) ;
#80 = MECHANICAL_CONTEXT ( 'NONE', #168, 'mechanical' ) ;
#81 = PERSON ( 'NEURÈENÝ', 'NEURÈENÝ', 'NEURÈENÝ', ('NEURÈENÝ'), ('NEURÈENÝ'), ('NEURÈENÝ') ) ;
#82 = PRODUCT_DEFINITION_SHAPE ( 'NONE', 'NONE',  #100 ) ;
#83 = CC_DESIGN_SECURITY_CLASSIFICATION ( #112, ( #227 ) ) ;
#84 = ORIENTED_EDGE ( 'NONE', *, *, #21, .F. ) ;
#85 = EDGE_LOOP ( 'NONE', ( #144, #170 ) ) ;
#86 = DIRECTION ( 'NONE',  ( 1.224646799147353207E-16, 1.000000000000000000, -0.000000000000000000 ) ) ;
#87 = CARTESIAN_POINT ( 'NONE',  ( 0.000000000000000000, 0.000000000000000000, 633.0000000000000000 ) ) ;
#88 = EDGE_LOOP ( 'NONE', ( #164, #36 ) ) ;
#89 = EDGE_CURVE ( 'NONE', #230, #284, #177, .T. ) ;
#90 = FACE_OUTER_BOUND ( 'NONE', #72, .T. ) ;
#91 = TOROIDAL_SURFACE ( 'NONE', #269, 2.700000000000000178, 0.2000000000000000111 ) ;
#92 = DIRECTION ( 'NONE',  ( 0.000000000000000000, 0.000000000000000000, 1.000000000000000000 ) ) ;
#93 = DIRECTION ( 'NONE',  ( 1.000000000000000000, 0.000000000000000000, 0.000000000000000000 ) ) ;
#94 = DIRECTION ( 'NONE',  ( -1.000000000000000000, 1.224646799147353207E-16, 0.000000000000000000 ) ) ;
#95 = EDGE_LOOP ( 'NONE', ( #62, #38, #303, #300 ) ) ;
#96 = ADVANCED_FACE ( 'NONE', ( #22, #145 ), #213, .T. ) ;
#97 = LINE ( 'NONE', #193, #136 ) ;
#98 = CARTESIAN_POINT ( 'NONE',  ( 0.000000000000000000, 0.000000000000000000, 3.199999999999980638 ) ) ;
#99 = COORDINATED_UNIVERSAL_TIME_OFFSET ( 1, 0, .AHEAD. ) ;
#100 = PRODUCT_DEFINITION ( 'NEZNÁMÝ', '', #227, #156 ) ;
#101 = DATE_AND_TIME ( #178, #252 ) ;
#102 = PERSON_AND_ORGANIZATION ( #81, #52 ) ;
#103 = PERSON_AND_ORGANIZATION ( #81, #52 ) ;
#104 = ADVANCED_FACE ( 'NONE', ( #26 ), #194, .F. ) ;
#105 = EDGE_LOOP ( 'NONE', ( #276, #216 ) ) ;
#106 = PERSON_AND_ORGANIZATION ( #81, #52 ) ;
#107 = CIRCLE ( 'NONE', #15, 0.2000000000000000944 ) ;
#108 = APPROVAL_PERSON_ORGANIZATION ( #131, #215, #294 ) ;
#109 = PRODUCT_RELATED_PRODUCT_CATEGORY ( 'detail', '', ( #37 ) ) ;
#110 = VERTEX_POINT ( 'NONE', #283 ) ;
#111 =( NAMED_UNIT ( * ) PLANE_ANGLE_UNIT ( ) SI_UNIT ( $, .RADIAN. ) );
#112 = SECURITY_CLASSIFICATION ( '', '', #13 ) ;
#113 = CYLINDRICAL_SURFACE ( 'NONE', #154, 2.500000000000000000 ) ;
#114 = EDGE_LOOP ( 'NONE', ( #67, #14, #162, #206 ) ) ;
#115 = CIRCLE ( 'NONE', #258, 2.700000000000000178 ) ;
#116 = ORIENTED_EDGE ( 'NONE', *, *, #251, .T. ) ;
#117 = ADVANCED_FACE ( 'NONE', ( #260 ), #50, .T. ) ;
#118 = VERTEX_POINT ( 'NONE', #27 ) ;
#119 = CIRCLE ( 'NONE', #256, 5.000000000000000000 ) ;
#120 = CIRCLE ( 'NONE', #39, 5.000000000000000000 ) ;
#121 = ORIENTED_EDGE ( 'NONE', *, *, #295, .T. ) ;
#122 = DIRECTION ( 'NONE',  ( 0.000000000000000000, 0.000000000000000000, 1.000000000000000000 ) ) ;
#123 = EDGE_CURVE ( 'NONE', #160, #250, #242, .T. ) ;
#124 = ORIENTED_EDGE ( 'NONE', *, *, #42, .T. ) ;
#125 = CARTESIAN_POINT ( 'NONE',  ( -5.000000000000000000, 0.000000000000000000, 0.000000000000000000 ) ) ;
#126 = CARTESIAN_POINT ( 'NONE',  ( -5.000000000000000000, 0.000000000000000000, 3.000000000000000000 ) ) ;
#127 = LINE ( 'NONE', #29, #34 ) ;
#128 = APPLICATION_CONTEXT ( 'configuration controlled 3d designs of mechanical parts and assemblies' ) ;
#129 = AXIS2_PLACEMENT_3D ( 'NONE', #20, #220, #212 ) ;
#130 = PERSON_AND_ORGANIZATION_ROLE ( 'creator' ) ;
#131 = PERSON_AND_ORGANIZATION ( #81, #52 ) ;
#132 = APPROVAL_STATUS ( 'not_yet_approved' ) ;
#133 =( NAMED_UNIT ( * ) SI_UNIT ( $, .STERADIAN. ) SOLID_ANGLE_UNIT ( ) );
#134 = ORIENTED_EDGE ( 'NONE', *, *, #143, .F. ) ;
#135 = VERTEX_POINT ( 'NONE', #264 ) ;
#136 = VECTOR ( 'NONE', #195, 1000.000000000000000 ) ;
#137 = EDGE_LOOP ( 'NONE', ( #187, #47, #261, #116 ) ) ;
#138 = FACE_OUTER_BOUND ( 'NONE', #203, .T. ) ;
#139 = DIRECTION ( 'NONE',  ( 0.000000000000000000, 0.000000000000000000, 1.000000000000000000 ) ) ;
#140 = VERTEX_POINT ( 'NONE', #151 ) ;
#141 = CIRCLE ( 'NONE', #129, 2.500000000000000000 ) ;
#142 = CARTESIAN_POINT ( 'NONE',  ( -2.500000000000000000, 0.000000000000000000, 633.0000000000000000 ) ) ;
#143 = EDGE_CURVE ( 'NONE', #135, #181, #10, .T. ) ;
#144 = ORIENTED_EDGE ( 'NONE', *, *, #241, .F. ) ;
#145 = FACE_OUTER_BOUND ( 'NONE', #167, .T. ) ;
#146 = CARTESIAN_POINT ( 'NONE',  ( 0.000000000000000000, 0.000000000000000000, 3.000000000000000000 ) ) ;
#147 = CLOSED_SHELL ( 'NONE', ( #153, #267, #59, #117, #96, #104, #161, #248, #63 ) ) ;
#148 = AXIS2_PLACEMENT_3D ( 'NONE', #219, #92, #191 ) ;
#149 = DIRECTION ( 'NONE',  ( -1.000000000000000000, 0.000000000000000000, 0.000000000000000000 ) ) ;
#150 = DIRECTION ( 'NONE',  ( 1.000000000000000000, 0.000000000000000000, 0.000000000000000000 ) ) ;
#151 = CARTESIAN_POINT ( 'NONE',  ( 5.000000000000000000, 6.123233995736766282E-16, 3.000000000000000000 ) ) ;
#152 = DIRECTION ( 'NONE',  ( -1.000000000000000000, 0.000000000000000000, 0.000000000000000000 ) ) ;
#153 = ADVANCED_FACE ( 'NONE', ( #222 ), #46, .F. ) ;
#154 = AXIS2_PLACEMENT_3D ( 'NONE', #87, #31, #188 ) ;
#155 = AXIS2_PLACEMENT_3D ( 'NONE', #254, #2, #152 ) ;
#156 = DESIGN_CONTEXT ( 'detailed design', #128, 'design' ) ;
#157 = APPROVAL_ROLE ( '' ) ;
#158 =( GEOMETRIC_REPRESENTATION_CONTEXT ( 3 ) GLOBAL_UNCERTAINTY_ASSIGNED_CONTEXT ( ( #270 ) ) GLOBAL_UNIT_ASSIGNED_CONTEXT ( ( #289, #111, #133 ) ) REPRESENTATION_CONTEXT ( 'NONE', 'WORKASPACE' ) );
#159 = CALENDAR_DATE ( 2022, 7, 7 ) ;
#160 = VERTEX_POINT ( 'NONE', #163 ) ;
#161 = ADVANCED_FACE ( 'NONE', ( #240 ), #45, .T. ) ;
#162 = ORIENTED_EDGE ( 'NONE', *, *, #35, .T. ) ;
#163 = CARTESIAN_POINT ( 'NONE',  ( -5.000000000000000000, 0.000000000000000000, 3.000000000000000000 ) ) ;
#164 = ORIENTED_EDGE ( 'NONE', *, *, #171, .T. ) ;
#165 = EDGE_CURVE ( 'NONE', #160, #140, #282, .T. ) ;
#166 = DIRECTION ( 'NONE',  ( 0.000000000000000000, 0.000000000000000000, 1.000000000000000000 ) ) ;
#167 = EDGE_LOOP ( 'NONE', ( #301, #121 ) ) ;
#168 = APPLICATION_CONTEXT ( 'configuration controlled 3d designs of mechanical parts and assemblies' ) ;
#169 = DIRECTION ( 'NONE',  ( -0.000000000000000000, -0.000000000000000000, -1.000000000000000000 ) ) ;
#170 = ORIENTED_EDGE ( 'NONE', *, *, #35, .F. ) ;
#171 = EDGE_CURVE ( 'NONE', #284, #230, #115, .T. ) ;
#172 = ORIENTED_EDGE ( 'NONE', *, *, #251, .F. ) ;
#173 = CARTESIAN_POINT ( 'NONE',  ( -2.700000000000000178, 3.306546357697853733E-16, 3.199999999999980638 ) ) ;
#174 = ORIENTED_EDGE ( 'NONE', *, *, #197, .F. ) ;
#175 = EDGE_CURVE ( 'NONE', #118, #230, #298, .T. ) ;
#176 = PERSON_AND_ORGANIZATION ( #81, #52 ) ;
#177 = CIRCLE ( 'NONE', #293, 2.700000000000000178 ) ;
#178 = CALENDAR_DATE ( 2022, 7, 7 ) ;
#179 = SHAPE_DEFINITION_REPRESENTATION ( #82, #66 ) ;
#180 = CALENDAR_DATE ( 2022, 7, 7 ) ;
#181 = VERTEX_POINT ( 'NONE', #142 ) ;
#182 = AXIS2_PLACEMENT_3D ( 'NONE', #233, #287, #75 ) ;
#183 = CC_DESIGN_PERSON_AND_ORGANIZATION_ASSIGNMENT ( #12, #202, ( #112 ) ) ;
#184 = AXIS2_PLACEMENT_3D ( 'NONE', #281, #259, #93 ) ;
#185 = AXIS2_PLACEMENT_3D ( 'NONE', #146, #3, #238 ) ;
#186 = DIRECTION ( 'NONE',  ( 0.000000000000000000, 0.000000000000000000, 1.000000000000000000 ) ) ;
#187 = ORIENTED_EDGE ( 'NONE', *, *, #299, .F. ) ;
#188 = DIRECTION ( 'NONE',  ( -1.000000000000000000, 0.000000000000000000, 0.000000000000000000 ) ) ;
#189 = ORIENTED_EDGE ( 'NONE', *, *, #42, .F. ) ;
#190 = DIRECTION ( 'NONE',  ( 0.000000000000000000, 0.000000000000000000, 1.000000000000000000 ) ) ;
#191 = DIRECTION ( 'NONE',  ( 1.000000000000000000, 0.000000000000000000, -0.000000000000000000 ) ) ;
#192 = DIRECTION ( 'NONE',  ( 1.000000000000000000, 0.000000000000000000, -0.000000000000000000 ) ) ;
#193 = CARTESIAN_POINT ( 'NONE',  ( 5.000000000000000000, 6.123233995736766282E-16, 3.000000000000000000 ) ) ;
#194 = PLANE ( 'NONE',  #148 ) ;
#195 = DIRECTION ( 'NONE',  ( -0.000000000000000000, -0.000000000000000000, -1.000000000000000000 ) ) ;
#196 = VECTOR ( 'NONE', #30, 1000.000000000000000 ) ;
#197 = EDGE_CURVE ( 'NONE', #181, #118, #127, .T. ) ;
#198 = DATE_AND_TIME ( #159, #271 ) ;
#199 = PERSON_AND_ORGANIZATION_ROLE ( 'design_owner' ) ;
#200 = AXIS2_PLACEMENT_3D ( 'NONE', #280, #236, #192 ) ;
#201 = CALENDAR_DATE ( 2022, 7, 7 ) ;
#202 = PERSON_AND_ORGANIZATION_ROLE ( 'classification_officer' ) ;
#203 = EDGE_LOOP ( 'NONE', ( #134, #234, #40, #174 ) ) ;
#204 = CC_DESIGN_PERSON_AND_ORGANIZATION_ASSIGNMENT ( #32, #199, ( #37 ) ) ;
#205 = PERSON_AND_ORGANIZATION ( #81, #52 ) ;
#206 = ORIENTED_EDGE ( 'NONE', *, *, #123, .F. ) ;
#207 = LOCAL_TIME ( 12, 18, 47.00000000000000000, #244 ) ;
#208 = ORIENTED_EDGE ( 'NONE', *, *, #89, .F. ) ;
#209 = VERTEX_POINT ( 'NONE', #263 ) ;
#210 = CARTESIAN_POINT ( 'NONE',  ( 0.000000000000000000, 0.000000000000000000, 3.000000000000000000 ) ) ;
#211 = EDGE_LOOP ( 'NONE', ( #172, #286, #275, #189 ) ) ;
#212 = DIRECTION ( 'NONE',  ( 1.000000000000000000, 0.000000000000000000, 0.000000000000000000 ) ) ;
#213 = PLANE ( 'NONE',  #200 ) ;
#214 = DIRECTION ( 'NONE',  ( 0.000000000000000000, 0.000000000000000000, 1.000000000000000000 ) ) ;
#215 = APPROVAL ( #245, 'NEURÈENÝ' ) ;
#216 = ORIENTED_EDGE ( 'NONE', *, *, #143, .T. ) ;
#217 = DIRECTION ( 'NONE',  ( -0.000000000000000000, -0.000000000000000000, -1.000000000000000000 ) ) ;
#218 = FACE_OUTER_BOUND ( 'NONE', #105, .T. ) ;
#219 = CARTESIAN_POINT ( 'NONE',  ( 0.000000000000000000, 0.000000000000000000, 0.000000000000000000 ) ) ;
#220 = DIRECTION ( 'NONE',  ( 0.000000000000000000, 0.000000000000000000, 1.000000000000000000 ) ) ;
#221 = APPROVAL ( #58, 'NEURÈENÝ' ) ;
#222 = FACE_OUTER_BOUND ( 'NONE', #211, .T. ) ;
#223 = LOCAL_TIME ( 12, 18, 47.00000000000000000, #99 ) ;
#224 = DATE_TIME_ROLE ( 'creation_date' ) ;
#225 = DATE_AND_TIME ( #266, #207 ) ;
#226 = PERSON_AND_ORGANIZATION_ROLE ( 'design_supplier' ) ;
#227 = PRODUCT_DEFINITION_FORMATION_WITH_SPECIFIED_SOURCE ( 'LIBOVOLNÝ', '', #37, .NOT_KNOWN. ) ;
#228 = APPLICATION_PROTOCOL_DEFINITION ( 'international standard', 'config_control_design', 1994, #168 ) ;
#229 = CC_DESIGN_APPROVAL ( #221, ( #100 ) ) ;
#230 = VERTEX_POINT ( 'NONE', #41 ) ;
#231 = DIRECTION ( 'NONE',  ( 1.000000000000000000, 0.000000000000000000, -0.000000000000000000 ) ) ;
#232 = AXIS2_PLACEMENT_3D ( 'NONE', #54, #139, #43 ) ;
#233 = CARTESIAN_POINT ( 'NONE',  ( 0.000000000000000000, 0.000000000000000000, 633.0000000000000000 ) ) ;
#234 = ORIENTED_EDGE ( 'NONE', *, *, #299, .T. ) ;
#235 = CC_DESIGN_PERSON_AND_ORGANIZATION_ASSIGNMENT ( #102, #226, ( #227 ) ) ;
#236 = DIRECTION ( 'NONE',  ( 0.000000000000000000, 0.000000000000000000, 1.000000000000000000 ) ) ;
#237 = MANIFOLD_SOLID_BREP ( 'Zaoblit1', #147 ) ;
#238 = DIRECTION ( 'NONE',  ( -1.000000000000000000, 0.000000000000000000, 0.000000000000000000 ) ) ;
#239 = CARTESIAN_POINT ( 'NONE',  ( 0.000000000000000000, 0.000000000000000000, 3.000000000000000000 ) ) ;
#240 = FACE_OUTER_BOUND ( 'NONE', #137, .T. ) ;
#241 = EDGE_CURVE ( 'NONE', #250, #110, #24, .T. ) ;
#242 = LINE ( 'NONE', #126, #196 ) ;
#243 = DIRECTION ( 'NONE',  ( -0.000000000000000000, -0.000000000000000000, -1.000000000000000000 ) ) ;
#244 = COORDINATED_UNIVERSAL_TIME_OFFSET ( 1, 0, .AHEAD. ) ;
#245 = APPROVAL_STATUS ( 'not_yet_approved' ) ;
#246 = CIRCLE ( 'NONE', #182, 2.500000000000000000 ) ;
#247 = APPROVAL_DATE_TIME ( #273, #68 ) ;
#248 = ADVANCED_FACE ( 'NONE', ( #218 ), #5, .T. ) ;
#249 = CIRCLE ( 'NONE', #184, 2.500000000000000000 ) ;
#250 = VERTEX_POINT ( 'NONE', #125 ) ;
#251 = EDGE_CURVE ( 'NONE', #118, #209, #141, .T. ) ;
#252 = LOCAL_TIME ( 12, 18, 47.00000000000000000, #8 ) ;
#253 = DIRECTION ( 'NONE',  ( 0.000000000000000000, 0.000000000000000000, 1.000000000000000000 ) ) ;
#254 = CARTESIAN_POINT ( 'NONE',  ( 0.000000000000000000, 0.000000000000000000, 633.0000000000000000 ) ) ;
#255 = DIRECTION ( 'NONE',  ( 1.000000000000000000, 0.000000000000000000, 0.000000000000000000 ) ) ;
#256 = AXIS2_PLACEMENT_3D ( 'NONE', #74, #214, #305 ) ;
#257 = CARTESIAN_POINT ( 'NONE',  ( 0.000000000000000000, 0.000000000000000000, 3.199999999999980638 ) ) ;
#258 = AXIS2_PLACEMENT_3D ( 'NONE', #210, #302, #150 ) ;
#259 = DIRECTION ( 'NONE',  ( 0.000000000000000000, 0.000000000000000000, 1.000000000000000000 ) ) ;
#260 = FACE_OUTER_BOUND ( 'NONE', #95, .T. ) ;
#261 = ORIENTED_EDGE ( 'NONE', *, *, #197, .T. ) ;
#262 = CC_DESIGN_DATE_AND_TIME_ASSIGNMENT ( #291, #33, ( #112 ) ) ;
#263 = CARTESIAN_POINT ( 'NONE',  ( 2.500000000000000000, 3.061616997868383141E-16, 3.199999999999980638 ) ) ;
#264 = CARTESIAN_POINT ( 'NONE',  ( 2.500000000000000000, 3.061616997868383141E-16, 633.0000000000000000 ) ) ;
#265 = LINE ( 'NONE', #55, #6 ) ;
#266 = CALENDAR_DATE ( 2022, 7, 7 ) ;
#267 = ADVANCED_FACE ( 'NONE', ( #138 ), #113, .T. ) ;
#268 = APPLICATION_PROTOCOL_DEFINITION ( 'international standard', 'config_control_design', 1994, #128 ) ;
#269 = AXIS2_PLACEMENT_3D ( 'NONE', #257, #190, #49 ) ;
#270 = UNCERTAINTY_MEASURE_WITH_UNIT (LENGTH_MEASURE( 1.000000000000000082E-05 ), #289, 'distance_accuracy_value', 'NONE');
#271 = LOCAL_TIME ( 12, 18, 47.00000000000000000, #60 ) ;
#272 = PERSON_AND_ORGANIZATION_ROLE ( 'creator' ) ;
#273 = DATE_AND_TIME ( #201, #17 ) ;
#274 = EDGE_CURVE ( 'NONE', #140, #110, #97, .T. ) ;
#275 = ORIENTED_EDGE ( 'NONE', *, *, #171, .F. ) ;
#276 = ORIENTED_EDGE ( 'NONE', *, *, #304, .T. ) ;
#277 = CC_DESIGN_APPROVAL ( #68, ( #112 ) ) ;
#278 = DIRECTION ( 'NONE',  ( 1.000000000000000000, 0.000000000000000000, 0.000000000000000000 ) ) ;
#279 = CARTESIAN_POINT ( 'NONE',  ( 2.700000000000000178, 0.000000000000000000, 2.999999999999990674 ) ) ;
#280 = CARTESIAN_POINT ( 'NONE',  ( 0.000000000000000000, 0.000000000000000000, 3.000000000000000000 ) ) ;
#281 = CARTESIAN_POINT ( 'NONE',  ( 0.000000000000000000, 0.000000000000000000, 3.199999999999980638 ) ) ;
#282 = CIRCLE ( 'NONE', #18, 5.000000000000000000 ) ;
#283 = CARTESIAN_POINT ( 'NONE',  ( 5.000000000000000000, 6.123233995736766282E-16, 0.000000000000000000 ) ) ;
#284 = VERTEX_POINT ( 'NONE', #279 ) ;
#285 = DIRECTION ( 'NONE',  ( 1.000000000000000000, 0.000000000000000000, 0.000000000000000000 ) ) ;
#286 = ORIENTED_EDGE ( 'NONE', *, *, #175, .T. ) ;
#287 = DIRECTION ( 'NONE',  ( 0.000000000000000000, 0.000000000000000000, 1.000000000000000000 ) ) ;
#288 = AXIS2_PLACEMENT_3D ( 'NONE', #173, #86, #94 ) ;
#289 =( LENGTH_UNIT ( ) NAMED_UNIT ( * ) SI_UNIT ( .MILLI., .METRE. ) );
#290 = CC_DESIGN_PERSON_AND_ORGANIZATION_ASSIGNMENT ( #106, #272, ( #227 ) ) ;
#291 = DATE_AND_TIME ( #180, #223 ) ;
#292 = APPROVAL_DATE_TIME ( #101, #215 ) ;
#293 = AXIS2_PLACEMENT_3D ( 'NONE', #239, #217, #28 ) ;
#294 = APPROVAL_ROLE ( '' ) ;
#295 = EDGE_CURVE ( 'NONE', #140, #160, #120, .T. ) ;
#296 = DIRECTION ( 'NONE',  ( 0.000000000000000000, 0.000000000000000000, 1.000000000000000000 ) ) ;
#297 = DIRECTION ( 'NONE',  ( 1.000000000000000000, 0.000000000000000000, 0.000000000000000000 ) ) ;
#298 = CIRCLE ( 'NONE', #288, 0.2000000000000000944 ) ;
#299 = EDGE_CURVE ( 'NONE', #135, #209, #265, .T. ) ;
#300 = ORIENTED_EDGE ( 'NONE', *, *, #241, .T. ) ;
#301 = ORIENTED_EDGE ( 'NONE', *, *, #165, .T. ) ;
#302 = DIRECTION ( 'NONE',  ( -0.000000000000000000, -0.000000000000000000, -1.000000000000000000 ) ) ;
#303 = ORIENTED_EDGE ( 'NONE', *, *, #123, .T. ) ;
#304 = EDGE_CURVE ( 'NONE', #181, #135, #246, .T. ) ;
#305 = DIRECTION ( 'NONE',  ( 1.000000000000000000, 0.000000000000000000, 0.000000000000000000 ) ) ;
#306 = AXIS2_PLACEMENT_3D ( 'NONE', #71, #169, #149 ) ;
#307 = CYLINDRICAL_SURFACE ( 'NONE', #306, 5.000000000000000000 ) ;
ENDSEC;
END-ISO-10303-21;
