ISO-10303-21;
HEADER;
FILE_DESCRIPTION (( 'STEP AP203' ),
    '1' );
FILE_NAME ('2b4a.STEP',
    '2022-07-07T10:21:26',
    ( '' ),
    ( '' ),
    'SwSTEP 2.0',
    'SolidWorks 2019',
    '' );
FILE_SCHEMA (( 'CONFIG_CONTROL_DESIGN' ));
ENDSEC;

DATA;
#1 = CARTESIAN_POINT ( 'NONE',  ( -4.000000000000000000, 0.000000000000000000, 3.000000000000000000 ) ) ;
#2 = DATE_AND_TIME ( #229, #201 ) ;
#3 = VERTEX_POINT ( 'NONE', #4 ) ;
#4 = CARTESIAN_POINT ( 'NONE',  ( -2.250000000000000000, 0.000000000000000000, 3.199999999999980638 ) ) ;
#5 = ORIENTED_EDGE ( 'NONE', *, *, #251, .F. ) ;
#6 = CC_DESIGN_DATE_AND_TIME_ASSIGNMENT ( #250, #59, ( #81 ) ) ;
#7 = EDGE_LOOP ( 'NONE', ( #231, #275, #254, #217 ) ) ;
#8 = AXIS2_PLACEMENT_3D ( 'NONE', #58, #124, #174 ) ;
#9 = APPROVAL_STATUS ( 'not_yet_approved' ) ;
#10 = DIRECTION ( 'NONE',  ( 1.000000000000000000, 0.000000000000000000, 0.000000000000000000 ) ) ;
#11 = EDGE_CURVE ( 'NONE', #239, #3, #218, .T. ) ;
#12 = PERSON_AND_ORGANIZATION_ROLE ( 'design_owner' ) ;
#13 = CARTESIAN_POINT ( 'NONE',  ( 0.000000000000000000, 0.000000000000000000, 3.000000000000000000 ) ) ;
#14 = PERSON_AND_ORGANIZATION ( #195, #55 ) ;
#15 = CARTESIAN_POINT ( 'NONE',  ( 0.000000000000000000, 0.000000000000000000, 3.199999999999980638 ) ) ;
#16 = EDGE_LOOP ( 'NONE', ( #95, #158 ) ) ;
#17 = CIRCLE ( 'NONE', #198, 0.2000000000000000944 ) ;
#18 = CIRCLE ( 'NONE', #246, 2.449999999999999734 ) ;
#19 = DIRECTION ( 'NONE',  ( 0.000000000000000000, 0.000000000000000000, 1.000000000000000000 ) ) ;
#20 = CC_DESIGN_PERSON_AND_ORGANIZATION_ASSIGNMENT ( #131, #115, ( #270 ) ) ;
#21 = ORIENTED_EDGE ( 'NONE', *, *, #138, .F. ) ;
#22 = UNCERTAINTY_MEASURE_WITH_UNIT (LENGTH_MEASURE( 1.000000000000000082E-05 ), #207, 'distance_accuracy_value', 'NONE');
#23 = APPLICATION_CONTEXT ( 'configuration controlled 3d designs of mechanical parts and assemblies' ) ;
#24 = CYLINDRICAL_SURFACE ( 'NONE', #298, 2.250000000000000000 ) ;
#25 = DIRECTION ( 'NONE',  ( -1.000000000000000000, 0.000000000000000000, 0.000000000000000000 ) ) ;
#26 = DIRECTION ( 'NONE',  ( 1.000000000000000000, 0.000000000000000000, 0.000000000000000000 ) ) ;
#27 = EDGE_LOOP ( 'NONE', ( #259, #143 ) ) ;
#28 = CALENDAR_DATE ( 2022, 7, 7 ) ;
#29 = DIRECTION ( 'NONE',  ( 0.000000000000000000, 0.000000000000000000, 1.000000000000000000 ) ) ;
#30 = DIRECTION ( 'NONE',  ( 0.000000000000000000, 0.000000000000000000, 1.000000000000000000 ) ) ;
#31 = EDGE_CURVE ( 'NONE', #206, #189, #304, .T. ) ;
#32 = AXIS2_PLACEMENT_3D ( 'NONE', #68, #230, #272 ) ;
#33 = DIRECTION ( 'NONE',  ( 1.000000000000000000, 0.000000000000000000, 0.000000000000000000 ) ) ;
#34 = APPROVAL ( #176, 'NEURÈENÝ' ) ;
#35 = LOCAL_TIME ( 12, 21, 26.00000000000000000, #109 ) ;
#36 = EDGE_CURVE ( 'NONE', #189, #206, #78, .T. ) ;
#37 = SHAPE_DEFINITION_REPRESENTATION ( #89, #125 ) ;
#38 = CARTESIAN_POINT ( 'NONE',  ( 0.000000000000000000, 0.000000000000000000, 0.000000000000000000 ) ) ;
#39 = COORDINATED_UNIVERSAL_TIME_OFFSET ( 1, 0, .AHEAD. ) ;
#40 = CARTESIAN_POINT ( 'NONE',  ( 0.000000000000000000, 0.000000000000000000, 403.0000000000000000 ) ) ;
#41 = ORIENTED_EDGE ( 'NONE', *, *, #61, .F. ) ;
#42 = AXIS2_PLACEMENT_3D ( 'NONE', #13, #130, #226 ) ;
#43 = DIRECTION ( 'NONE',  ( 1.000000000000000000, 0.000000000000000000, 0.000000000000000000 ) ) ;
#44 = ORIENTED_EDGE ( 'NONE', *, *, #31, .T. ) ;
#45 = APPROVAL_DATE_TIME ( #2, #213 ) ;
#46 = APPROVAL_PERSON_ORGANIZATION ( #187, #34, #190 ) ;
#47 = DIRECTION ( 'NONE',  ( -0.000000000000000000, -0.000000000000000000, -1.000000000000000000 ) ) ;
#48 = ORIENTED_EDGE ( 'NONE', *, *, #51, .F. ) ;
#49 = DIRECTION ( 'NONE',  ( 1.000000000000000000, 0.000000000000000000, 0.000000000000000000 ) ) ;
#50 = DIRECTION ( 'NONE',  ( -0.000000000000000000, -0.000000000000000000, -1.000000000000000000 ) ) ;
#51 = EDGE_CURVE ( 'NONE', #110, #239, #192, .T. ) ;
#52 = DIRECTION ( 'NONE',  ( 0.000000000000000000, 0.000000000000000000, 1.000000000000000000 ) ) ;
#53 = EDGE_CURVE ( 'NONE', #110, #266, #288, .T. ) ;
#54 = CIRCLE ( 'NONE', #151, 2.250000000000000000 ) ;
#55 = ORGANIZATION ( 'NEURÈENÝ', 'NEURÈENÝ', '' ) ;
#56 = DESIGN_CONTEXT ( 'detailed design', #23, 'design' ) ;
#57 = PERSON_AND_ORGANIZATION_ROLE ( 'creator' ) ;
#58 = CARTESIAN_POINT ( 'NONE',  ( 0.000000000000000000, 0.000000000000000000, 403.0000000000000000 ) ) ;
#59 = DATE_TIME_ROLE ( 'creation_date' ) ;
#60 = CARTESIAN_POINT ( 'NONE',  ( 0.000000000000000000, 0.000000000000000000, 3.199999999999980638 ) ) ;
#61 = EDGE_CURVE ( 'NONE', #206, #255, #146, .T. ) ;
#62 = EDGE_LOOP ( 'NONE', ( #41, #179, #194, #285 ) ) ;
#63 = PERSON_AND_ORGANIZATION ( #195, #55 ) ;
#64 = CARTESIAN_POINT ( 'NONE',  ( 4.000000000000000000, 4.898587196589412829E-16, 3.000000000000000000 ) ) ;
#65 = TOROIDAL_SURFACE ( 'NONE', #284, 2.449999999999999734, 0.2000000000000000111 ) ;
#66 = CIRCLE ( 'NONE', #127, 2.449999999999999734 ) ;
#67 = CARTESIAN_POINT ( 'NONE',  ( 0.000000000000000000, 0.000000000000000000, 403.0000000000000000 ) ) ;
#68 = CARTESIAN_POINT ( 'NONE',  ( 0.000000000000000000, 0.000000000000000000, 3.000000000000000000 ) ) ;
#69 = ORIENTED_EDGE ( 'NONE', *, *, #183, .T. ) ;
#70 = PERSON_AND_ORGANIZATION ( #195, #55 ) ;
#71 = CARTESIAN_POINT ( 'NONE',  ( 2.449999999999999734, 0.000000000000000000, 3.199999999999980638 ) ) ;
#72 = AXIS2_PLACEMENT_3D ( 'NONE', #204, #101, #220 ) ;
#73 = APPROVAL_PERSON_ORGANIZATION ( #252, #155, #105 ) ;
#74 = CARTESIAN_POINT ( 'NONE',  ( 2.250000000000000000, 2.755455298081544285E-16, 403.0000000000000000 ) ) ;
#75 = ADVANCED_FACE ( 'NONE', ( #282, #240 ), #287, .T. ) ;
#76 = DIRECTION ( 'NONE',  ( -0.000000000000000000, -0.000000000000000000, -1.000000000000000000 ) ) ;
#77 = CARTESIAN_POINT ( 'NONE',  ( 0.000000000000000000, 0.000000000000000000, 0.000000000000000000 ) ) ;
#78 = CIRCLE ( 'NONE', #90, 4.000000000000000000 ) ;
#79 = CARTESIAN_POINT ( 'NONE',  ( 0.000000000000000000, 0.000000000000000000, 3.000000000000000000 ) ) ;
#80 = EDGE_CURVE ( 'NONE', #266, #169, #17, .T. ) ;
#81 = PRODUCT_DEFINITION ( 'NEZNÁMÝ', '', #270, #56 ) ;
#82 = CARTESIAN_POINT ( 'NONE',  ( 0.000000000000000000, 0.000000000000000000, 3.199999999999980638 ) ) ;
#83 = COORDINATED_UNIVERSAL_TIME_OFFSET ( 1, 0, .AHEAD. ) ;
#84 = FACE_OUTER_BOUND ( 'NONE', #27, .T. ) ;
#85 = AXIS2_PLACEMENT_3D ( 'NONE', #40, #19, #279 ) ;
#86 = SECURITY_CLASSIFICATION_LEVEL ( 'unclassified' ) ;
#87 = ORIENTED_EDGE ( 'NONE', *, *, #11, .F. ) ;
#88 = DIRECTION ( 'NONE',  ( 0.000000000000000000, 0.000000000000000000, 1.000000000000000000 ) ) ;
#89 = PRODUCT_DEFINITION_SHAPE ( 'NONE', 'NONE',  #81 ) ;
#90 = AXIS2_PLACEMENT_3D ( 'NONE', #79, #52, #118 ) ;
#91 = CIRCLE ( 'NONE', #72, 0.2000000000000000944 ) ;
#92 = EDGE_LOOP ( 'NONE', ( #182, #286, #137, #133 ) ) ;
#93 = DIRECTION ( 'NONE',  ( 1.000000000000000000, 0.000000000000000000, 0.000000000000000000 ) ) ;
#94 =( NAMED_UNIT ( * ) SI_UNIT ( $, .STERADIAN. ) SOLID_ANGLE_UNIT ( ) );
#95 = ORIENTED_EDGE ( 'NONE', *, *, #248, .T. ) ;
#96 = CIRCLE ( 'NONE', #269, 4.000000000000000000 ) ;
#97 = AXIS2_PLACEMENT_3D ( 'NONE', #184, #88, #253 ) ;
#98 = CARTESIAN_POINT ( 'NONE',  ( 0.000000000000000000, 0.000000000000000000, 3.199999999999980638 ) ) ;
#99 = CARTESIAN_POINT ( 'NONE',  ( 0.000000000000000000, 0.000000000000000000, 3.000000000000000000 ) ) ;
#100 = ORIENTED_EDGE ( 'NONE', *, *, #251, .T. ) ;
#101 = DIRECTION ( 'NONE',  ( 1.224646799147353207E-16, 1.000000000000000000, -0.000000000000000000 ) ) ;
#102 = DIRECTION ( 'NONE',  ( 0.000000000000000000, 0.000000000000000000, 1.000000000000000000 ) ) ;
#103 = AXIS2_PLACEMENT_3D ( 'NONE', #82, #102, #10 ) ;
#104 = AXIS2_PLACEMENT_3D ( 'NONE', #162, #142, #26 ) ;
#105 = APPROVAL_ROLE ( '' ) ;
#106 = ADVANCED_FACE ( 'NONE', ( #119 ), #65, .F. ) ;
#107 = DIRECTION ( 'NONE',  ( 0.000000000000000000, 0.000000000000000000, 1.000000000000000000 ) ) ;
#108 = CYLINDRICAL_SURFACE ( 'NONE', #32, 4.000000000000000000 ) ;
#109 = COORDINATED_UNIVERSAL_TIME_OFFSET ( 1, 0, .AHEAD. ) ;
#110 = VERTEX_POINT ( 'NONE', #261 ) ;
#111 = CIRCLE ( 'NONE', #85, 2.250000000000000000 ) ;
#112 = PLANE ( 'NONE',  #97 ) ;
#113 = CARTESIAN_POINT ( 'NONE',  ( -2.250000000000000000, 0.000000000000000000, 403.0000000000000000 ) ) ;
#114 = CYLINDRICAL_SURFACE ( 'NONE', #42, 4.000000000000000000 ) ;
#115 = PERSON_AND_ORGANIZATION_ROLE ( 'creator' ) ;
#116 = ORIENTED_EDGE ( 'NONE', *, *, #248, .F. ) ;
#117 = EDGE_CURVE ( 'NONE', #189, #120, #264, .T. ) ;
#118 = DIRECTION ( 'NONE',  ( 1.000000000000000000, 0.000000000000000000, 0.000000000000000000 ) ) ;
#119 = FACE_OUTER_BOUND ( 'NONE', #219, .T. ) ;
#120 = VERTEX_POINT ( 'NONE', #243 ) ;
#121 = ORIENTED_EDGE ( 'NONE', *, *, #53, .T. ) ;
#122 = CYLINDRICAL_SURFACE ( 'NONE', #8, 2.250000000000000000 ) ;
#123 = CC_DESIGN_PERSON_AND_ORGANIZATION_ASSIGNMENT ( #153, #12, ( #140 ) ) ;
#124 = DIRECTION ( 'NONE',  ( -0.000000000000000000, -0.000000000000000000, -1.000000000000000000 ) ) ;
#125 = ADVANCED_BREP_SHAPE_REPRESENTATION ( '2b4a', ( #175, #257 ), #186 ) ;
#126 = APPLICATION_PROTOCOL_DEFINITION ( 'international standard', 'config_control_design', 1994, #23 ) ;
#127 = AXIS2_PLACEMENT_3D ( 'NONE', #209, #256, #43 ) ;
#128 = CC_DESIGN_APPROVAL ( #34, ( #81 ) ) ;
#129 = DIRECTION ( 'NONE',  ( 1.000000000000000000, 0.000000000000000000, 0.000000000000000000 ) ) ;
#130 = DIRECTION ( 'NONE',  ( -0.000000000000000000, -0.000000000000000000, -1.000000000000000000 ) ) ;
#131 = PERSON_AND_ORGANIZATION ( #195, #55 ) ;
#132 = CARTESIAN_POINT ( 'NONE',  ( 4.000000000000000000, 4.898587196589412829E-16, 0.000000000000000000 ) ) ;
#133 = ORIENTED_EDGE ( 'NONE', *, *, #290, .T. ) ;
#134 = APPROVAL_DATE_TIME ( #281, #155 ) ;
#135 = FACE_OUTER_BOUND ( 'NONE', #92, .T. ) ;
#136 = VECTOR ( 'NONE', #47, 1000.000000000000000 ) ;
#137 = ORIENTED_EDGE ( 'NONE', *, *, #11, .T. ) ;
#138 = EDGE_CURVE ( 'NONE', #255, #120, #96, .T. ) ;
#139 = DIRECTION ( 'NONE',  ( 0.000000000000000000, 0.000000000000000000, 1.000000000000000000 ) ) ;
#140 = PRODUCT ( '2b4a', '2b4a', '', ( #225 ) ) ;
#141 = DIRECTION ( 'NONE',  ( -0.000000000000000000, -0.000000000000000000, -1.000000000000000000 ) ) ;
#142 = DIRECTION ( 'NONE',  ( 0.000000000000000000, 0.000000000000000000, 1.000000000000000000 ) ) ;
#143 = ORIENTED_EDGE ( 'NONE', *, *, #51, .T. ) ;
#144 = CALENDAR_DATE ( 2022, 7, 7 ) ;
#145 = CARTESIAN_POINT ( 'NONE',  ( 2.449999999999999734, 0.000000000000000000, 2.999999999999990674 ) ) ;
#146 = LINE ( 'NONE', #215, #159 ) ;
#147 = CARTESIAN_POINT ( 'NONE',  ( -2.449999999999999734, 3.000384657911015370E-16, 2.999999999999990674 ) ) ;
#148 = CC_DESIGN_APPROVAL ( #213, ( #178 ) ) ;
#149 = DIRECTION ( 'NONE',  ( 0.000000000000000000, -1.000000000000000000, 0.000000000000000000 ) ) ;
#150 = DIRECTION ( 'NONE',  ( 0.000000000000000000, 0.000000000000000000, 1.000000000000000000 ) ) ;
#151 = AXIS2_PLACEMENT_3D ( 'NONE', #15, #139, #232 ) ;
#152 = COORDINATED_UNIVERSAL_TIME_OFFSET ( 1, 0, .AHEAD. ) ;
#153 = PERSON_AND_ORGANIZATION ( #195, #55 ) ;
#154 = AXIS2_PLACEMENT_3D ( 'NONE', #263, #30, #244 ) ;
#155 = APPROVAL ( #9, 'NEURÈENÝ' ) ;
#156 = EDGE_LOOP ( 'NONE', ( #208, #5, #228, #280 ) ) ;
#157 = APPROVAL_ROLE ( '' ) ;
#158 = ORIENTED_EDGE ( 'NONE', *, *, #199, .T. ) ;
#159 = VECTOR ( 'NONE', #76, 1000.000000000000000 ) ;
#160 = AXIS2_PLACEMENT_3D ( 'NONE', #60, #296, #234 ) ;
#161 = LOCAL_TIME ( 12, 21, 26.00000000000000000, #83 ) ;
#162 = CARTESIAN_POINT ( 'NONE',  ( 0.000000000000000000, 0.000000000000000000, 0.000000000000000000 ) ) ;
#163 = VERTEX_POINT ( 'NONE', #147 ) ;
#164 = COORDINATED_UNIVERSAL_TIME_OFFSET ( 1, 0, .AHEAD. ) ;
#165 = DIRECTION ( 'NONE',  ( 0.000000000000000000, 0.000000000000000000, -1.000000000000000000 ) ) ;
#166 = LOCAL_TIME ( 12, 21, 26.00000000000000000, #152 ) ;
#167 = DIRECTION ( 'NONE',  ( -0.000000000000000000, -0.000000000000000000, -1.000000000000000000 ) ) ;
#168 = DIRECTION ( 'NONE',  ( 1.000000000000000000, 0.000000000000000000, 0.000000000000000000 ) ) ;
#169 = VERTEX_POINT ( 'NONE', #145 ) ;
#170 = ADVANCED_FACE ( 'NONE', ( #265 ), #172, .F. ) ;
#171 = FACE_OUTER_BOUND ( 'NONE', #235, .T. ) ;
#172 = TOROIDAL_SURFACE ( 'NONE', #103, 2.449999999999999734, 0.2000000000000000111 ) ;
#173 = CIRCLE ( 'NONE', #160, 2.250000000000000000 ) ;
#174 = DIRECTION ( 'NONE',  ( -1.000000000000000000, 0.000000000000000000, 0.000000000000000000 ) ) ;
#175 = MANIFOLD_SOLID_BREP ( 'Zaoblit1', #221 ) ;
#176 = APPROVAL_STATUS ( 'not_yet_approved' ) ;
#177 =( NAMED_UNIT ( * ) PLANE_ANGLE_UNIT ( ) SI_UNIT ( $, .RADIAN. ) );
#178 = SECURITY_CLASSIFICATION ( '', '', #86 ) ;
#179 = ORIENTED_EDGE ( 'NONE', *, *, #36, .F. ) ;
#180 = PERSON_AND_ORGANIZATION_ROLE ( 'classification_officer' ) ;
#181 = ADVANCED_FACE ( 'NONE', ( #171 ), #122, .T. ) ;
#182 = ORIENTED_EDGE ( 'NONE', *, *, #53, .F. ) ;
#183 = EDGE_CURVE ( 'NONE', #3, #163, #91, .T. ) ;
#184 = CARTESIAN_POINT ( 'NONE',  ( 0.000000000000000000, 0.000000000000000000, 403.0000000000000000 ) ) ;
#185 = FACE_OUTER_BOUND ( 'NONE', #7, .T. ) ;
#186 =( GEOMETRIC_REPRESENTATION_CONTEXT ( 3 ) GLOBAL_UNCERTAINTY_ASSIGNED_CONTEXT ( ( #22 ) ) GLOBAL_UNIT_ASSIGNED_CONTEXT ( ( #207, #177, #94 ) ) REPRESENTATION_CONTEXT ( 'NONE', 'WORKASPACE' ) );
#187 = PERSON_AND_ORGANIZATION ( #195, #55 ) ;
#188 = CC_DESIGN_PERSON_AND_ORGANIZATION_ASSIGNMENT ( #14, #299, ( #270 ) ) ;
#189 = VERTEX_POINT ( 'NONE', #268 ) ;
#190 = APPROVAL_ROLE ( '' ) ;
#191 = DIRECTION ( 'NONE',  ( 0.000000000000000000, 0.000000000000000000, 1.000000000000000000 ) ) ;
#192 = CIRCLE ( 'NONE', #292, 2.250000000000000000 ) ;
#193 = AXIS2_PLACEMENT_3D ( 'NONE', #303, #205, #276 ) ;
#194 = ORIENTED_EDGE ( 'NONE', *, *, #117, .T. ) ;
#195 = PERSON ( 'NEURÈENÝ', 'NEURÈENÝ', 'NEURÈENÝ', ('NEURÈENÝ'), ('NEURÈENÝ'), ('NEURÈENÝ') ) ;
#196 = CARTESIAN_POINT ( 'NONE',  ( 0.000000000000000000, 0.000000000000000000, 403.0000000000000000 ) ) ;
#197 = CARTESIAN_POINT ( 'NONE',  ( -2.250000000000000000, 0.000000000000000000, 403.0000000000000000 ) ) ;
#198 = AXIS2_PLACEMENT_3D ( 'NONE', #71, #149, #165 ) ;
#199 = EDGE_CURVE ( 'NONE', #163, #169, #18, .T. ) ;
#200 = VECTOR ( 'NONE', #50, 1000.000000000000000 ) ;
#201 = LOCAL_TIME ( 12, 21, 26.00000000000000000, #39 ) ;
#202 = PRODUCT_RELATED_PRODUCT_CATEGORY ( 'detail', '', ( #140 ) ) ;
#203 = DATE_AND_TIME ( #249, #242 ) ;
#204 = CARTESIAN_POINT ( 'NONE',  ( -2.449999999999999734, 3.000384657911015370E-16, 3.199999999999980638 ) ) ;
#205 = DIRECTION ( 'NONE',  ( 0.000000000000000000, 0.000000000000000000, 1.000000000000000000 ) ) ;
#206 = VERTEX_POINT ( 'NONE', #64 ) ;
#207 =( LENGTH_UNIT ( ) NAMED_UNIT ( * ) SI_UNIT ( .MILLI., .METRE. ) );
#208 = ORIENTED_EDGE ( 'NONE', *, *, #183, .F. ) ;
#209 = CARTESIAN_POINT ( 'NONE',  ( 0.000000000000000000, 0.000000000000000000, 3.000000000000000000 ) ) ;
#210 = ORIENTED_EDGE ( 'NONE', *, *, #80, .F. ) ;
#211 = FACE_OUTER_BOUND ( 'NONE', #306, .T. ) ;
#212 = DIRECTION ( 'NONE',  ( 1.000000000000000000, 0.000000000000000000, 0.000000000000000000 ) ) ;
#213 = APPROVAL ( #260, 'NEURÈENÝ' ) ;
#214 = DIRECTION ( 'NONE',  ( 0.000000000000000000, 0.000000000000000000, 1.000000000000000000 ) ) ;
#215 = CARTESIAN_POINT ( 'NONE',  ( 4.000000000000000000, 4.898587196589412829E-16, 3.000000000000000000 ) ) ;
#216 = EDGE_CURVE ( 'NONE', #239, #110, #111, .T. ) ;
#217 = ORIENTED_EDGE ( 'NONE', *, *, #117, .F. ) ;
#218 = LINE ( 'NONE', #197, #200 ) ;
#219 = EDGE_LOOP ( 'NONE', ( #297, #69, #116, #210 ) ) ;
#220 = DIRECTION ( 'NONE',  ( -1.000000000000000000, 1.224646799147353207E-16, 0.000000000000000000 ) ) ;
#221 = CLOSED_SHELL ( 'NONE', ( #106, #181, #277, #238, #75, #262, #237, #267, #170 ) ) ;
#222 = CC_DESIGN_PERSON_AND_ORGANIZATION_ASSIGNMENT ( #70, #180, ( #178 ) ) ;
#223 = AXIS2_PLACEMENT_3D ( 'NONE', #99, #29, #33 ) ;
#224 = APPROVAL_DATE_TIME ( #283, #34 ) ;
#225 = MECHANICAL_CONTEXT ( 'NONE', #291, 'mechanical' ) ;
#226 = DIRECTION ( 'NONE',  ( -1.000000000000000000, 0.000000000000000000, 0.000000000000000000 ) ) ;
#227 = APPLICATION_PROTOCOL_DEFINITION ( 'international standard', 'config_control_design', 1994, #291 ) ;
#228 = ORIENTED_EDGE ( 'NONE', *, *, #80, .T. ) ;
#229 = CALENDAR_DATE ( 2022, 7, 7 ) ;
#230 = DIRECTION ( 'NONE',  ( -0.000000000000000000, -0.000000000000000000, -1.000000000000000000 ) ) ;
#231 = ORIENTED_EDGE ( 'NONE', *, *, #31, .F. ) ;
#232 = DIRECTION ( 'NONE',  ( 1.000000000000000000, 0.000000000000000000, 0.000000000000000000 ) ) ;
#233 = PLANE ( 'NONE',  #193 ) ;
#234 = DIRECTION ( 'NONE',  ( 1.000000000000000000, 0.000000000000000000, 0.000000000000000000 ) ) ;
#235 = EDGE_LOOP ( 'NONE', ( #48, #121, #100, #87 ) ) ;
#236 = ORIENTED_EDGE ( 'NONE', *, *, #36, .T. ) ;
#237 = ADVANCED_FACE ( 'NONE', ( #135 ), #24, .T. ) ;
#238 = ADVANCED_FACE ( 'NONE', ( #278 ), #108, .T. ) ;
#239 = VERTEX_POINT ( 'NONE', #113 ) ;
#240 = FACE_OUTER_BOUND ( 'NONE', #273, .T. ) ;
#241 = CIRCLE ( 'NONE', #104, 4.000000000000000000 ) ;
#242 = LOCAL_TIME ( 12, 21, 26.00000000000000000, #164 ) ;
#243 = CARTESIAN_POINT ( 'NONE',  ( -4.000000000000000000, 0.000000000000000000, 0.000000000000000000 ) ) ;
#244 = DIRECTION ( 'NONE',  ( 1.000000000000000000, 0.000000000000000000, -0.000000000000000000 ) ) ;
#245 = VECTOR ( 'NONE', #167, 1000.000000000000000 ) ;
#246 = AXIS2_PLACEMENT_3D ( 'NONE', #247, #305, #212 ) ;
#247 = CARTESIAN_POINT ( 'NONE',  ( 0.000000000000000000, 0.000000000000000000, 3.000000000000000000 ) ) ;
#248 = EDGE_CURVE ( 'NONE', #169, #163, #66, .T. ) ;
#249 = CALENDAR_DATE ( 2022, 7, 7 ) ;
#250 = DATE_AND_TIME ( #294, #35 ) ;
#251 = EDGE_CURVE ( 'NONE', #266, #3, #54, .T. ) ;
#252 = PERSON_AND_ORGANIZATION ( #195, #55 ) ;
#253 = DIRECTION ( 'NONE',  ( 1.000000000000000000, 0.000000000000000000, -0.000000000000000000 ) ) ;
#254 = ORIENTED_EDGE ( 'NONE', *, *, #138, .T. ) ;
#255 = VERTEX_POINT ( 'NONE', #132 ) ;
#256 = DIRECTION ( 'NONE',  ( -0.000000000000000000, -0.000000000000000000, -1.000000000000000000 ) ) ;
#257 = AXIS2_PLACEMENT_3D ( 'NONE', #38, #107, #129 ) ;
#258 = CC_DESIGN_DATE_AND_TIME_ASSIGNMENT ( #203, #274, ( #178 ) ) ;
#259 = ORIENTED_EDGE ( 'NONE', *, *, #216, .T. ) ;
#260 = APPROVAL_STATUS ( 'not_yet_approved' ) ;
#261 = CARTESIAN_POINT ( 'NONE',  ( 2.250000000000000000, 2.755455298081544285E-16, 403.0000000000000000 ) ) ;
#262 = ADVANCED_FACE ( 'NONE', ( #211 ), #233, .F. ) ;
#263 = CARTESIAN_POINT ( 'NONE',  ( 0.000000000000000000, 0.000000000000000000, 3.000000000000000000 ) ) ;
#264 = LINE ( 'NONE', #1, #136 ) ;
#265 = FACE_OUTER_BOUND ( 'NONE', #156, .T. ) ;
#266 = VERTEX_POINT ( 'NONE', #302 ) ;
#267 = ADVANCED_FACE ( 'NONE', ( #84 ), #112, .T. ) ;
#268 = CARTESIAN_POINT ( 'NONE',  ( -4.000000000000000000, 0.000000000000000000, 3.000000000000000000 ) ) ;
#269 = AXIS2_PLACEMENT_3D ( 'NONE', #77, #150, #49 ) ;
#270 = PRODUCT_DEFINITION_FORMATION_WITH_SPECIFIED_SOURCE ( 'LIBOVOLNÝ', '', #140, .NOT_KNOWN. ) ;
#271 = PERSON_AND_ORGANIZATION ( #195, #55 ) ;
#272 = DIRECTION ( 'NONE',  ( -1.000000000000000000, 0.000000000000000000, 0.000000000000000000 ) ) ;
#273 = EDGE_LOOP ( 'NONE', ( #236, #44 ) ) ;
#274 = DATE_TIME_ROLE ( 'classification_date' ) ;
#275 = ORIENTED_EDGE ( 'NONE', *, *, #61, .T. ) ;
#276 = DIRECTION ( 'NONE',  ( 1.000000000000000000, 0.000000000000000000, -0.000000000000000000 ) ) ;
#277 = ADVANCED_FACE ( 'NONE', ( #185 ), #114, .T. ) ;
#278 = FACE_OUTER_BOUND ( 'NONE', #62, .T. ) ;
#279 = DIRECTION ( 'NONE',  ( 1.000000000000000000, 0.000000000000000000, 0.000000000000000000 ) ) ;
#280 = ORIENTED_EDGE ( 'NONE', *, *, #199, .F. ) ;
#281 = DATE_AND_TIME ( #28, #166 ) ;
#282 = FACE_BOUND ( 'NONE', #16, .T. ) ;
#283 = DATE_AND_TIME ( #144, #161 ) ;
#284 = AXIS2_PLACEMENT_3D ( 'NONE', #98, #214, #168 ) ;
#285 = ORIENTED_EDGE ( 'NONE', *, *, #307, .T. ) ;
#286 = ORIENTED_EDGE ( 'NONE', *, *, #216, .F. ) ;
#287 = PLANE ( 'NONE',  #154 ) ;
#288 = LINE ( 'NONE', #74, #245 ) ;
#289 = CC_DESIGN_SECURITY_CLASSIFICATION ( #178, ( #270 ) ) ;
#290 = EDGE_CURVE ( 'NONE', #3, #266, #173, .T. ) ;
#291 = APPLICATION_CONTEXT ( 'configuration controlled 3d designs of mechanical parts and assemblies' ) ;
#292 = AXIS2_PLACEMENT_3D ( 'NONE', #196, #191, #93 ) ;
#293 = APPROVAL_PERSON_ORGANIZATION ( #63, #213, #157 ) ;
#294 = CALENDAR_DATE ( 2022, 7, 7 ) ;
#295 = CC_DESIGN_PERSON_AND_ORGANIZATION_ASSIGNMENT ( #271, #57, ( #81 ) ) ;
#296 = DIRECTION ( 'NONE',  ( 0.000000000000000000, 0.000000000000000000, 1.000000000000000000 ) ) ;
#297 = ORIENTED_EDGE ( 'NONE', *, *, #290, .F. ) ;
#298 = AXIS2_PLACEMENT_3D ( 'NONE', #67, #141, #25 ) ;
#299 = PERSON_AND_ORGANIZATION_ROLE ( 'design_supplier' ) ;
#300 = CC_DESIGN_APPROVAL ( #155, ( #270 ) ) ;
#301 = ORIENTED_EDGE ( 'NONE', *, *, #307, .F. ) ;
#302 = CARTESIAN_POINT ( 'NONE',  ( 2.250000000000000000, 2.755455298081544285E-16, 3.199999999999980638 ) ) ;
#303 = CARTESIAN_POINT ( 'NONE',  ( 0.000000000000000000, 0.000000000000000000, 0.000000000000000000 ) ) ;
#304 = CIRCLE ( 'NONE', #223, 4.000000000000000000 ) ;
#305 = DIRECTION ( 'NONE',  ( -0.000000000000000000, -0.000000000000000000, -1.000000000000000000 ) ) ;
#306 = EDGE_LOOP ( 'NONE', ( #301, #21 ) ) ;
#307 = EDGE_CURVE ( 'NONE', #120, #255, #241, .T. ) ;
ENDSEC;
END-ISO-10303-21;
