ISO-10303-21;
HEADER;
FILE_DESCRIPTION (( 'STEP AP203' ),
    '1' );
FILE_NAME ('1ae4.STEP',
    '2022-07-07T09:55:08',
    ( '' ),
    ( '' ),
    'SwSTEP 2.0',
    'SolidWorks 2019',
    '' );
FILE_SCHEMA (( 'CONFIG_CONTROL_DESIGN' ));
ENDSEC;

DATA;
#1 = CARTESIAN_POINT ( 'NONE',  ( 5.200000000000001066, 0.000000000000000000, 5.199999999999996625 ) ) ;
#2 = CC_DESIGN_APPROVAL ( #150, ( #167 ) ) ;
#3 = CC_DESIGN_PERSON_AND_ORGANIZATION_ASSIGNMENT ( #222, #99, ( #39 ) ) ;
#4 = CARTESIAN_POINT ( 'NONE',  ( 5.200000000000001066, 0.000000000000000000, 4.999999999999998224 ) ) ;
#5 = ADVANCED_BREP_SHAPE_REPRESENTATION ( '1ae4', ( #136, #96 ), #234 ) ;
#6 = DATE_AND_TIME ( #221, #147 ) ;
#7 = CALENDAR_DATE ( 2022, 7, 7 ) ;
#8 = CIRCLE ( 'NONE', #275, 5.000000000000000888 ) ;
#9 = DESIGN_CONTEXT ( 'detailed design', #194, 'design' ) ;
#10 = APPLICATION_PROTOCOL_DEFINITION ( 'international standard', 'config_control_design', 1994, #194 ) ;
#11 = ORIENTED_EDGE ( 'NONE', *, *, #146, .F. ) ;
#12 = VERTEX_POINT ( 'NONE', #213 ) ;
#13 = COORDINATED_UNIVERSAL_TIME_OFFSET ( 1, 0, .AHEAD. ) ;
#14 = ORIENTED_EDGE ( 'NONE', *, *, #259, .T. ) ;
#15 = SHAPE_DEFINITION_REPRESENTATION ( #285, #5 ) ;
#16 = DIRECTION ( 'NONE',  ( 0.000000000000000000, 0.000000000000000000, 1.000000000000000000 ) ) ;
#17 = VECTOR ( 'NONE', #148, 1000.000000000000000 ) ;
#18 = ORIENTED_EDGE ( 'NONE', *, *, #94, .T. ) ;
#19 = ORIENTED_EDGE ( 'NONE', *, *, #238, .T. ) ;
#20 = CARTESIAN_POINT ( 'NONE',  ( -5.000000000000000888, 0.000000000000000000, 5.199999999999996625 ) ) ;
#21 = DIRECTION ( 'NONE',  ( 0.000000000000000000, -1.000000000000000000, 0.000000000000000000 ) ) ;
#22 = CC_DESIGN_APPROVAL ( #204, ( #39 ) ) ;
#23 = DIRECTION ( 'NONE',  ( -0.000000000000000000, -0.000000000000000000, -1.000000000000000000 ) ) ;
#24 = DIRECTION ( 'NONE',  ( 1.000000000000000000, 0.000000000000000000, 0.000000000000000000 ) ) ;
#25 = ADVANCED_FACE ( 'NONE', ( #132 ), #159, .F. ) ;
#26 = DIRECTION ( 'NONE',  ( -1.000000000000000000, 1.224646799147353454E-16, 0.000000000000000000 ) ) ;
#27 = CLOSED_SHELL ( 'NONE', ( #56, #157, #126, #80, #103, #197, #173, #199, #25 ) ) ;
#28 = DIRECTION ( 'NONE',  ( -0.000000000000000000, -0.000000000000000000, -1.000000000000000000 ) ) ;
#29 = DATE_AND_TIME ( #76, #137 ) ;
#30 = AXIS2_PLACEMENT_3D ( 'NONE', #1, #21, #165 ) ;
#31 = CALENDAR_DATE ( 2022, 7, 7 ) ;
#32 = ORIENTED_EDGE ( 'NONE', *, *, #232, .T. ) ;
#33 = CC_DESIGN_PERSON_AND_ORGANIZATION_ASSIGNMENT ( #269, #100, ( #131 ) ) ;
#34 = ORIENTED_EDGE ( 'NONE', *, *, #189, .T. ) ;
#35 = AXIS2_PLACEMENT_3D ( 'NONE', #45, #243, #239 ) ;
#36 = APPROVAL_ROLE ( '' ) ;
#37 = EDGE_LOOP ( 'NONE', ( #77, #278, #60, #14 ) ) ;
#38 = CARTESIAN_POINT ( 'NONE',  ( 0.000000000000000000, 0.000000000000000000, 5.199999999999996625 ) ) ;
#39 = PRODUCT_DEFINITION_FORMATION_WITH_SPECIFIED_SOURCE ( 'LIBOVOLNÝ', '', #66, .NOT_KNOWN. ) ;
#40 = LOCAL_TIME ( 11, 55, 8.000000000000000000, #203 ) ;
#41 = ORIENTED_EDGE ( 'NONE', *, *, #47, .F. ) ;
#42 = DIRECTION ( 'NONE',  ( -0.000000000000000000, -0.000000000000000000, -1.000000000000000000 ) ) ;
#43 = EDGE_CURVE ( 'NONE', #227, #78, #44, .T. ) ;
#44 = CIRCLE ( 'NONE', #142, 5.000000000000000888 ) ;
#45 = CARTESIAN_POINT ( 'NONE',  ( 0.000000000000000000, 0.000000000000000000, 5.000000000000000000 ) ) ;
#46 = CARTESIAN_POINT ( 'NONE',  ( 5.000000000000000888, 6.123233995736767268E-16, 130.0000000000000000 ) ) ;
#47 = EDGE_CURVE ( 'NONE', #12, #129, #223, .T. ) ;
#48 = EDGE_CURVE ( 'NONE', #225, #161, #8, .T. ) ;
#49 = CARTESIAN_POINT ( 'NONE',  ( 0.000000000000000000, 0.000000000000000000, 130.0000000000000000 ) ) ;
#50 = CARTESIAN_POINT ( 'NONE',  ( 0.000000000000000000, 0.000000000000000000, 0.000000000000000000 ) ) ;
#51 = CIRCLE ( 'NONE', #30, 0.1999999999999996503 ) ;
#52 = APPROVAL_DATE_TIME ( #6, #204 ) ;
#53 = CARTESIAN_POINT ( 'NONE',  ( 0.000000000000000000, 0.000000000000000000, 0.000000000000000000 ) ) ;
#54 = AXIS2_PLACEMENT_3D ( 'NONE', #286, #144, #115 ) ;
#55 = ORIENTED_EDGE ( 'NONE', *, *, #43, .T. ) ;
#56 = ADVANCED_FACE ( 'NONE', ( #231 ), #219, .F. ) ;
#57 = COORDINATED_UNIVERSAL_TIME_OFFSET ( 1, 0, .AHEAD. ) ;
#58 = EDGE_LOOP ( 'NONE', ( #34, #174 ) ) ;
#59 = ORIENTED_EDGE ( 'NONE', *, *, #182, .F. ) ;
#60 = ORIENTED_EDGE ( 'NONE', *, *, #276, .T. ) ;
#61 = CYLINDRICAL_SURFACE ( 'NONE', #248, 8.000000000000000000 ) ;
#62 = CIRCLE ( 'NONE', #125, 8.000000000000000000 ) ;
#63 = DIRECTION ( 'NONE',  ( 1.000000000000000000, 0.000000000000000000, 0.000000000000000000 ) ) ;
#64 = APPROVAL ( #226, 'NEURÈENÝ' ) ;
#65 = DIRECTION ( 'NONE',  ( 1.000000000000000000, 0.000000000000000000, 0.000000000000000000 ) ) ;
#66 = PRODUCT ( '1ae4', '1ae4', '', ( #172 ) ) ;
#67 = DIRECTION ( 'NONE',  ( 0.000000000000000000, 0.000000000000000000, 1.000000000000000000 ) ) ;
#68 = AXIS2_PLACEMENT_3D ( 'NONE', #158, #186, #212 ) ;
#69 = DIRECTION ( 'NONE',  ( 1.000000000000000000, 0.000000000000000000, 0.000000000000000000 ) ) ;
#70 = CARTESIAN_POINT ( 'NONE',  ( 5.000000000000000888, 6.123233995736767268E-16, 5.199999999999996625 ) ) ;
#71 = PLANE ( 'NONE',  #299 ) ;
#72 = UNCERTAINTY_MEASURE_WITH_UNIT (LENGTH_MEASURE( 1.000000000000000082E-05 ), #247, 'distance_accuracy_value', 'NONE');
#73 = CIRCLE ( 'NONE', #54, 5.000000000000000888 ) ;
#74 = CC_DESIGN_PERSON_AND_ORGANIZATION_ASSIGNMENT ( #250, #268, ( #66 ) ) ;
#75 = DATE_TIME_ROLE ( 'classification_date' ) ;
#76 = CALENDAR_DATE ( 2022, 7, 7 ) ;
#77 = ORIENTED_EDGE ( 'NONE', *, *, #289, .F. ) ;
#78 = VERTEX_POINT ( 'NONE', #20 ) ;
#79 = AXIS2_PLACEMENT_3D ( 'NONE', #263, #92, #65 ) ;
#80 = ADVANCED_FACE ( 'NONE', ( #135 ), #235, .T. ) ;
#81 = DIRECTION ( 'NONE',  ( 0.000000000000000000, 0.000000000000000000, 1.000000000000000000 ) ) ;
#82 = ORIENTED_EDGE ( 'NONE', *, *, #267, .T. ) ;
#83 = DIRECTION ( 'NONE',  ( 0.000000000000000000, 0.000000000000000000, 1.000000000000000000 ) ) ;
#84 = CARTESIAN_POINT ( 'NONE',  ( 0.000000000000000000, 0.000000000000000000, 5.199999999999996625 ) ) ;
#85 = CIRCLE ( 'NONE', #79, 8.000000000000000000 ) ;
#86 = FACE_BOUND ( 'NONE', #58, .T. ) ;
#87 = DIRECTION ( 'NONE',  ( 1.000000000000000000, 0.000000000000000000, 0.000000000000000000 ) ) ;
#88 = CC_DESIGN_DATE_AND_TIME_ASSIGNMENT ( #208, #297, ( #167 ) ) ;
#89 = ORIENTED_EDGE ( 'NONE', *, *, #43, .F. ) ;
#90 = AXIS2_PLACEMENT_3D ( 'NONE', #303, #260, #63 ) ;
#91 = APPROVAL_PERSON_ORGANIZATION ( #127, #64, #36 ) ;
#92 = DIRECTION ( 'NONE',  ( 0.000000000000000000, 0.000000000000000000, 1.000000000000000000 ) ) ;
#93 = DIRECTION ( 'NONE',  ( 0.000000000000000000, 0.000000000000000000, 1.000000000000000000 ) ) ;
#94 = EDGE_CURVE ( 'NONE', #177, #236, #130, .T. ) ;
#95 = CARTESIAN_POINT ( 'NONE',  ( 0.000000000000000000, 0.000000000000000000, 130.0000000000000000 ) ) ;
#96 = AXIS2_PLACEMENT_3D ( 'NONE', #53, #295, #121 ) ;
#97 = CARTESIAN_POINT ( 'NONE',  ( -5.000000000000000888, 0.000000000000000000, 130.0000000000000000 ) ) ;
#98 = DIRECTION ( 'NONE',  ( -0.000000000000000000, -0.000000000000000000, -1.000000000000000000 ) ) ;
#99 = PERSON_AND_ORGANIZATION_ROLE ( 'design_supplier' ) ;
#100 = PERSON_AND_ORGANIZATION_ROLE ( 'classification_officer' ) ;
#101 = APPROVAL_PERSON_ORGANIZATION ( #180, #204, #249 ) ;
#102 = EDGE_LOOP ( 'NONE', ( #154, #82, #55, #257 ) ) ;
#103 = ADVANCED_FACE ( 'NONE', ( #86, #183 ), #274, .T. ) ;
#104 = EDGE_LOOP ( 'NONE', ( #111, #294, #229, #19 ) ) ;
#105 = AXIS2_PLACEMENT_3D ( 'NONE', #50, #220, #69 ) ;
#106 = EDGE_LOOP ( 'NONE', ( #211, #89, #122, #41 ) ) ;
#107 = DIRECTION ( 'NONE',  ( 1.000000000000000000, 0.000000000000000000, 0.000000000000000000 ) ) ;
#108 = VECTOR ( 'NONE', #23, 1000.000000000000000 ) ;
#109 = CARTESIAN_POINT ( 'NONE',  ( 0.000000000000000000, 0.000000000000000000, 5.000000000000000000 ) ) ;
#110 = CC_DESIGN_DATE_AND_TIME_ASSIGNMENT ( #293, #75, ( #131 ) ) ;
#111 = ORIENTED_EDGE ( 'NONE', *, *, #267, .F. ) ;
#112 = PERSON ( 'NEURÈENÝ', 'NEURÈENÝ', 'NEURÈENÝ', ('NEURÈENÝ'), ('NEURÈENÝ'), ('NEURÈENÝ') ) ;
#113 = DIRECTION ( 'NONE',  ( -1.000000000000000000, 0.000000000000000000, 0.000000000000000000 ) ) ;
#114 = CARTESIAN_POINT ( 'NONE',  ( -5.000000000000000888, 0.000000000000000000, 130.0000000000000000 ) ) ;
#115 = DIRECTION ( 'NONE',  ( 1.000000000000000000, 0.000000000000000000, 0.000000000000000000 ) ) ;
#116 = CC_DESIGN_PERSON_AND_ORGANIZATION_ASSIGNMENT ( #224, #246, ( #39 ) ) ;
#117 = FACE_OUTER_BOUND ( 'NONE', #102, .T. ) ;
#118 = AXIS2_PLACEMENT_3D ( 'NONE', #49, #42, #287 ) ;
#119 = FACE_OUTER_BOUND ( 'NONE', #139, .T. ) ;
#120 = FACE_OUTER_BOUND ( 'NONE', #207, .T. ) ;
#121 = DIRECTION ( 'NONE',  ( 1.000000000000000000, 0.000000000000000000, 0.000000000000000000 ) ) ;
#122 = ORIENTED_EDGE ( 'NONE', *, *, #146, .T. ) ;
#123 = CIRCLE ( 'NONE', #105, 8.000000000000000000 ) ;
#124 = APPLICATION_PROTOCOL_DEFINITION ( 'international standard', 'config_control_design', 1994, #176 ) ;
#125 = AXIS2_PLACEMENT_3D ( 'NONE', #200, #216, #24 ) ;
#126 = ADVANCED_FACE ( 'NONE', ( #279 ), #61, .T. ) ;
#127 = PERSON_AND_ORGANIZATION ( #112, #240 ) ;
#128 = ORIENTED_EDGE ( 'NONE', *, *, #276, .F. ) ;
#129 = VERTEX_POINT ( 'NONE', #4 ) ;
#130 = CIRCLE ( 'NONE', #304, 8.000000000000000000 ) ;
#131 = SECURITY_CLASSIFICATION ( '', '', #175 ) ;
#132 = FACE_OUTER_BOUND ( 'NONE', #106, .T. ) ;
#133 = COORDINATED_UNIVERSAL_TIME_OFFSET ( 1, 0, .AHEAD. ) ;
#134 = DIRECTION ( 'NONE',  ( -0.000000000000000000, -0.000000000000000000, -1.000000000000000000 ) ) ;
#135 = FACE_OUTER_BOUND ( 'NONE', #37, .T. ) ;
#136 = MANIFOLD_SOLID_BREP ( 'Zaoblit1', #27 ) ;
#137 = LOCAL_TIME ( 11, 55, 8.000000000000000000, #206 ) ;
#138 = EDGE_CURVE ( 'NONE', #210, #277, #85, .T. ) ;
#139 = EDGE_LOOP ( 'NONE', ( #160, #271 ) ) ;
#140 = CC_DESIGN_PERSON_AND_ORGANIZATION_ASSIGNMENT ( #149, #205, ( #167 ) ) ;
#141 = FACE_OUTER_BOUND ( 'NONE', #104, .T. ) ;
#142 = AXIS2_PLACEMENT_3D ( 'NONE', #84, #187, #281 ) ;
#143 = CARTESIAN_POINT ( 'NONE',  ( -8.000000000000000000, 0.000000000000000000, 5.000000000000000000 ) ) ;
#144 = DIRECTION ( 'NONE',  ( 0.000000000000000000, 0.000000000000000000, 1.000000000000000000 ) ) ;
#145 = CARTESIAN_POINT ( 'NONE',  ( 8.000000000000000000, 9.797174393178825657E-16, 0.000000000000000000 ) ) ;
#146 = EDGE_CURVE ( 'NONE', #227, #129, #51, .T. ) ;
#147 = LOCAL_TIME ( 11, 55, 8.000000000000000000, #57 ) ;
#148 = DIRECTION ( 'NONE',  ( -0.000000000000000000, -0.000000000000000000, -1.000000000000000000 ) ) ;
#149 = PERSON_AND_ORGANIZATION ( #112, #240 ) ;
#150 = APPROVAL ( #179, 'NEURÈENÝ' ) ;
#151 = ORIENTED_EDGE ( 'NONE', *, *, #259, .F. ) ;
#152 = APPROVAL_PERSON_ORGANIZATION ( #153, #150, #251 ) ;
#153 = PERSON_AND_ORGANIZATION ( #112, #240 ) ;
#154 = ORIENTED_EDGE ( 'NONE', *, *, #48, .F. ) ;
#155 = CARTESIAN_POINT ( 'NONE',  ( 0.000000000000000000, 0.000000000000000000, 130.0000000000000000 ) ) ;
#156 = APPROVAL_DATE_TIME ( #253, #64 ) ;
#157 = ADVANCED_FACE ( 'NONE', ( #117 ), #262, .T. ) ;
#158 = CARTESIAN_POINT ( 'NONE',  ( 0.000000000000000000, 0.000000000000000000, 5.000000000000000000 ) ) ;
#159 = TOROIDAL_SURFACE ( 'NONE', #163, 5.200000000000001066, 0.2000000000000000111 ) ;
#160 = ORIENTED_EDGE ( 'NONE', *, *, #302, .T. ) ;
#161 = VERTEX_POINT ( 'NONE', #114 ) ;
#162 = ORIENTED_EDGE ( 'NONE', *, *, #238, .F. ) ;
#163 = AXIS2_PLACEMENT_3D ( 'NONE', #164, #188, #87 ) ;
#164 = CARTESIAN_POINT ( 'NONE',  ( 0.000000000000000000, 0.000000000000000000, 5.199999999999996625 ) ) ;
#165 = DIRECTION ( 'NONE',  ( 0.000000000000000000, 0.000000000000000000, -1.000000000000000000 ) ) ;
#166 = DIRECTION ( 'NONE',  ( 1.000000000000000000, 0.000000000000000000, -0.000000000000000000 ) ) ;
#167 = PRODUCT_DEFINITION ( 'NEZNÁMÝ', '', #39, #9 ) ;
#168 = AXIS2_PLACEMENT_3D ( 'NONE', #38, #184, #256 ) ;
#169 = CARTESIAN_POINT ( 'NONE',  ( 5.000000000000000888, 6.123233995736767268E-16, 130.0000000000000000 ) ) ;
#170 = LINE ( 'NONE', #190, #280 ) ;
#171 = DIRECTION ( 'NONE',  ( 1.000000000000000000, 0.000000000000000000, -0.000000000000000000 ) ) ;
#172 = MECHANICAL_CONTEXT ( 'NONE', #176, 'mechanical' ) ;
#173 = ADVANCED_FACE ( 'NONE', ( #141 ), #307, .T. ) ;
#174 = ORIENTED_EDGE ( 'NONE', *, *, #47, .T. ) ;
#175 = SECURITY_CLASSIFICATION_LEVEL ( 'unclassified' ) ;
#176 = APPLICATION_CONTEXT ( 'configuration controlled 3d designs of mechanical parts and assemblies' ) ;
#177 = VERTEX_POINT ( 'NONE', #145 ) ;
#178 = LOCAL_TIME ( 11, 55, 8.000000000000000000, #13 ) ;
#179 = APPROVAL_STATUS ( 'not_yet_approved' ) ;
#180 = PERSON_AND_ORGANIZATION ( #112, #240 ) ;
#181 = ORIENTED_EDGE ( 'NONE', *, *, #94, .F. ) ;
#182 = EDGE_CURVE ( 'NONE', #277, #210, #62, .T. ) ;
#183 = FACE_OUTER_BOUND ( 'NONE', #300, .T. ) ;
#184 = DIRECTION ( 'NONE',  ( 0.000000000000000000, 0.000000000000000000, 1.000000000000000000 ) ) ;
#185 = AXIS2_PLACEMENT_3D ( 'NONE', #193, #98, #261 ) ;
#186 = DIRECTION ( 'NONE',  ( 0.000000000000000000, 0.000000000000000000, 1.000000000000000000 ) ) ;
#187 = DIRECTION ( 'NONE',  ( 0.000000000000000000, 0.000000000000000000, 1.000000000000000000 ) ) ;
#188 = DIRECTION ( 'NONE',  ( 0.000000000000000000, 0.000000000000000000, 1.000000000000000000 ) ) ;
#189 = EDGE_CURVE ( 'NONE', #129, #12, #215, .T. ) ;
#190 = CARTESIAN_POINT ( 'NONE',  ( 8.000000000000000000, 9.797174393178825657E-16, 5.000000000000000000 ) ) ;
#191 = PRODUCT_RELATED_PRODUCT_CATEGORY ( 'detail', '', ( #66 ) ) ;
#192 = DIRECTION ( 'NONE',  ( -0.000000000000000000, -0.000000000000000000, -1.000000000000000000 ) ) ;
#193 = CARTESIAN_POINT ( 'NONE',  ( 0.000000000000000000, 0.000000000000000000, 130.0000000000000000 ) ) ;
#194 = APPLICATION_CONTEXT ( 'configuration controlled 3d designs of mechanical parts and assemblies' ) ;
#195 = AXIS2_PLACEMENT_3D ( 'NONE', #264, #245, #26 ) ;
#196 = CC_DESIGN_APPROVAL ( #64, ( #131 ) ) ;
#197 = ADVANCED_FACE ( 'NONE', ( #120 ), #71, .F. ) ;
#198 = DIRECTION ( 'NONE',  ( -0.000000000000000000, -0.000000000000000000, -1.000000000000000000 ) ) ;
#199 = ADVANCED_FACE ( 'NONE', ( #119 ), #284, .T. ) ;
#200 = CARTESIAN_POINT ( 'NONE',  ( 0.000000000000000000, 0.000000000000000000, 5.000000000000000000 ) ) ;
#201 = DIRECTION ( 'NONE',  ( 1.000000000000000000, 0.000000000000000000, 0.000000000000000000 ) ) ;
#202 = CIRCLE ( 'NONE', #291, 5.000000000000000888 ) ;
#203 = COORDINATED_UNIVERSAL_TIME_OFFSET ( 1, 0, .AHEAD. ) ;
#204 = APPROVAL ( #272, 'NEURÈENÝ' ) ;
#205 = PERSON_AND_ORGANIZATION_ROLE ( 'creator' ) ;
#206 = COORDINATED_UNIVERSAL_TIME_OFFSET ( 1, 0, .AHEAD. ) ;
#207 = EDGE_LOOP ( 'NONE', ( #151, #181 ) ) ;
#208 = DATE_AND_TIME ( #7, #178 ) ;
#209 = CALENDAR_DATE ( 2022, 7, 7 ) ;
#210 = VERTEX_POINT ( 'NONE', #143 ) ;
#211 = ORIENTED_EDGE ( 'NONE', *, *, #232, .F. ) ;
#212 = DIRECTION ( 'NONE',  ( 1.000000000000000000, 0.000000000000000000, -0.000000000000000000 ) ) ;
#213 = CARTESIAN_POINT ( 'NONE',  ( -5.200000000000001066, 6.368163355566237368E-16, 4.999999999999998224 ) ) ;
#214 = DIRECTION ( 'NONE',  ( 1.000000000000000000, 0.000000000000000000, 0.000000000000000000 ) ) ;
#215 = CIRCLE ( 'NONE', #35, 5.200000000000001066 ) ;
#216 = DIRECTION ( 'NONE',  ( 0.000000000000000000, 0.000000000000000000, 1.000000000000000000 ) ) ;
#217 = DIRECTION ( 'NONE',  ( -1.000000000000000000, 0.000000000000000000, 0.000000000000000000 ) ) ;
#218 = CARTESIAN_POINT ( 'NONE',  ( 8.000000000000000000, 9.797174393178825657E-16, 5.000000000000000000 ) ) ;
#219 = TOROIDAL_SURFACE ( 'NONE', #168, 5.200000000000001066, 0.2000000000000000111 ) ;
#220 = DIRECTION ( 'NONE',  ( 0.000000000000000000, 0.000000000000000000, 1.000000000000000000 ) ) ;
#221 = CALENDAR_DATE ( 2022, 7, 7 ) ;
#222 = PERSON_AND_ORGANIZATION ( #112, #240 ) ;
#223 = CIRCLE ( 'NONE', #90, 5.200000000000001066 ) ;
#224 = PERSON_AND_ORGANIZATION ( #112, #240 ) ;
#225 = VERTEX_POINT ( 'NONE', #169 ) ;
#226 = APPROVAL_STATUS ( 'not_yet_approved' ) ;
#227 = VERTEX_POINT ( 'NONE', #70 ) ;
#228 = APPROVAL_DATE_TIME ( #29, #150 ) ;
#229 = ORIENTED_EDGE ( 'NONE', *, *, #283, .T. ) ;
#230 = AXIS2_PLACEMENT_3D ( 'NONE', #95, #67, #166 ) ;
#231 = FACE_OUTER_BOUND ( 'NONE', #296, .T. ) ;
#232 = EDGE_CURVE ( 'NONE', #78, #12, #244, .T. ) ;
#233 = CARTESIAN_POINT ( 'NONE',  ( 0.000000000000000000, 0.000000000000000000, 0.000000000000000000 ) ) ;
#234 =( GEOMETRIC_REPRESENTATION_CONTEXT ( 3 ) GLOBAL_UNCERTAINTY_ASSIGNED_CONTEXT ( ( #72 ) ) GLOBAL_UNIT_ASSIGNED_CONTEXT ( ( #247, #290, #270 ) ) REPRESENTATION_CONTEXT ( 'NONE', 'WORKASPACE' ) );
#235 = CYLINDRICAL_SURFACE ( 'NONE', #266, 8.000000000000000000 ) ;
#236 = VERTEX_POINT ( 'NONE', #265 ) ;
#237 = CARTESIAN_POINT ( 'NONE',  ( 0.000000000000000000, 0.000000000000000000, 130.0000000000000000 ) ) ;
#238 = EDGE_CURVE ( 'NONE', #78, #227, #73, .T. ) ;
#239 = DIRECTION ( 'NONE',  ( 1.000000000000000000, 0.000000000000000000, 0.000000000000000000 ) ) ;
#240 = ORGANIZATION ( 'NEURÈENÝ', 'NEURÈENÝ', '' ) ;
#241 = LINE ( 'NONE', #46, #17 ) ;
#242 = LINE ( 'NONE', #305, #108 ) ;
#243 = DIRECTION ( 'NONE',  ( -0.000000000000000000, -0.000000000000000000, -1.000000000000000000 ) ) ;
#244 = CIRCLE ( 'NONE', #195, 0.1999999999999996503 ) ;
#245 = DIRECTION ( 'NONE',  ( 1.224646799147353207E-16, 1.000000000000000000, -0.000000000000000000 ) ) ;
#246 = PERSON_AND_ORGANIZATION_ROLE ( 'creator' ) ;
#247 =( LENGTH_UNIT ( ) NAMED_UNIT ( * ) SI_UNIT ( .MILLI., .METRE. ) );
#248 = AXIS2_PLACEMENT_3D ( 'NONE', #282, #192, #217 ) ;
#249 = APPROVAL_ROLE ( '' ) ;
#250 = PERSON_AND_ORGANIZATION ( #112, #240 ) ;
#251 = APPROVAL_ROLE ( '' ) ;
#252 = VECTOR ( 'NONE', #198, 1000.000000000000000 ) ;
#253 = DATE_AND_TIME ( #209, #254 ) ;
#254 = LOCAL_TIME ( 11, 55, 8.000000000000000000, #133 ) ;
#255 = ORIENTED_EDGE ( 'NONE', *, *, #182, .T. ) ;
#256 = DIRECTION ( 'NONE',  ( 1.000000000000000000, 0.000000000000000000, 0.000000000000000000 ) ) ;
#257 = ORIENTED_EDGE ( 'NONE', *, *, #283, .F. ) ;
#258 = EDGE_LOOP ( 'NONE', ( #59, #298, #18, #128 ) ) ;
#259 = EDGE_CURVE ( 'NONE', #236, #177, #123, .T. ) ;
#260 = DIRECTION ( 'NONE',  ( -0.000000000000000000, -0.000000000000000000, -1.000000000000000000 ) ) ;
#261 = DIRECTION ( 'NONE',  ( -1.000000000000000000, 0.000000000000000000, 0.000000000000000000 ) ) ;
#262 = CYLINDRICAL_SURFACE ( 'NONE', #118, 5.000000000000000888 ) ;
#263 = CARTESIAN_POINT ( 'NONE',  ( 0.000000000000000000, 0.000000000000000000, 5.000000000000000000 ) ) ;
#264 = CARTESIAN_POINT ( 'NONE',  ( -5.200000000000001066, 6.368163355566237368E-16, 5.199999999999996625 ) ) ;
#265 = CARTESIAN_POINT ( 'NONE',  ( -8.000000000000000000, 0.000000000000000000, 0.000000000000000000 ) ) ;
#266 = AXIS2_PLACEMENT_3D ( 'NONE', #109, #134, #113 ) ;
#267 = EDGE_CURVE ( 'NONE', #225, #227, #241, .T. ) ;
#268 = PERSON_AND_ORGANIZATION_ROLE ( 'design_owner' ) ;
#269 = PERSON_AND_ORGANIZATION ( #112, #240 ) ;
#270 =( NAMED_UNIT ( * ) SI_UNIT ( $, .STERADIAN. ) SOLID_ANGLE_UNIT ( ) );
#271 = ORIENTED_EDGE ( 'NONE', *, *, #48, .T. ) ;
#272 = APPROVAL_STATUS ( 'not_yet_approved' ) ;
#273 = ORIENTED_EDGE ( 'NONE', *, *, #189, .F. ) ;
#274 = PLANE ( 'NONE',  #68 ) ;
#275 = AXIS2_PLACEMENT_3D ( 'NONE', #237, #83, #214 ) ;
#276 = EDGE_CURVE ( 'NONE', #210, #236, #242, .T. ) ;
#277 = VERTEX_POINT ( 'NONE', #218 ) ;
#278 = ORIENTED_EDGE ( 'NONE', *, *, #138, .F. ) ;
#279 = FACE_OUTER_BOUND ( 'NONE', #258, .T. ) ;
#280 = VECTOR ( 'NONE', #28, 1000.000000000000000 ) ;
#281 = DIRECTION ( 'NONE',  ( 1.000000000000000000, 0.000000000000000000, 0.000000000000000000 ) ) ;
#282 = CARTESIAN_POINT ( 'NONE',  ( 0.000000000000000000, 0.000000000000000000, 5.000000000000000000 ) ) ;
#283 = EDGE_CURVE ( 'NONE', #161, #78, #288, .T. ) ;
#284 = PLANE ( 'NONE',  #230 ) ;
#285 = PRODUCT_DEFINITION_SHAPE ( 'NONE', 'NONE',  #167 ) ;
#286 = CARTESIAN_POINT ( 'NONE',  ( 0.000000000000000000, 0.000000000000000000, 5.199999999999996625 ) ) ;
#287 = DIRECTION ( 'NONE',  ( -1.000000000000000000, 0.000000000000000000, 0.000000000000000000 ) ) ;
#288 = LINE ( 'NONE', #97, #252 ) ;
#289 = EDGE_CURVE ( 'NONE', #277, #177, #170, .T. ) ;
#290 =( NAMED_UNIT ( * ) PLANE_ANGLE_UNIT ( ) SI_UNIT ( $, .RADIAN. ) );
#291 = AXIS2_PLACEMENT_3D ( 'NONE', #155, #81, #201 ) ;
#292 = CC_DESIGN_SECURITY_CLASSIFICATION ( #131, ( #39 ) ) ;
#293 = DATE_AND_TIME ( #31, #40 ) ;
#294 = ORIENTED_EDGE ( 'NONE', *, *, #302, .F. ) ;
#295 = DIRECTION ( 'NONE',  ( 0.000000000000000000, 0.000000000000000000, 1.000000000000000000 ) ) ;
#296 = EDGE_LOOP ( 'NONE', ( #162, #32, #273, #11 ) ) ;
#297 = DATE_TIME_ROLE ( 'creation_date' ) ;
#298 = ORIENTED_EDGE ( 'NONE', *, *, #289, .T. ) ;
#299 = AXIS2_PLACEMENT_3D ( 'NONE', #306, #93, #171 ) ;
#300 = EDGE_LOOP ( 'NONE', ( #301, #255 ) ) ;
#301 = ORIENTED_EDGE ( 'NONE', *, *, #138, .T. ) ;
#302 = EDGE_CURVE ( 'NONE', #161, #225, #202, .T. ) ;
#303 = CARTESIAN_POINT ( 'NONE',  ( 0.000000000000000000, 0.000000000000000000, 5.000000000000000000 ) ) ;
#304 = AXIS2_PLACEMENT_3D ( 'NONE', #233, #16, #107 ) ;
#305 = CARTESIAN_POINT ( 'NONE',  ( -8.000000000000000000, 0.000000000000000000, 5.000000000000000000 ) ) ;
#306 = CARTESIAN_POINT ( 'NONE',  ( 0.000000000000000000, 0.000000000000000000, 0.000000000000000000 ) ) ;
#307 = CYLINDRICAL_SURFACE ( 'NONE', #185, 5.000000000000000888 ) ;
ENDSEC;
END-ISO-10303-21;
