ISO-10303-21;
HEADER;
FILE_DESCRIPTION (( 'STEP AP203' ),
    '1' );
FILE_NAME ('c71b.STEP',
    '2022-07-07T09:36:48',
    ( '' ),
    ( '' ),
    'SwSTEP 2.0',
    'SolidWorks 2019',
    '' );
FILE_SCHEMA (( 'CONFIG_CONTROL_DESIGN' ));
ENDSEC;

DATA;
#1 = CARTESIAN_POINT ( 'NONE',  ( 0.000000000000000000, 0.000000000000000000, 207.0000000000000284 ) ) ;
#2 = TOROIDAL_SURFACE ( 'NONE', #60, 9.199999999999999289, 0.2000000000000000111 ) ;
#3 = PRODUCT_DEFINITION ( 'NEZNÁMÝ', '', #44, #242 ) ;
#4 = DIRECTION ( 'NONE',  ( 0.000000000000000000, 0.000000000000000000, 1.000000000000000000 ) ) ;
#5 = VERTEX_POINT ( 'NONE', #149 ) ;
#6 = DIRECTION ( 'NONE',  ( 1.000000000000000000, 0.000000000000000000, -0.000000000000000000 ) ) ;
#7 = AXIS2_PLACEMENT_3D ( 'NONE', #109, #131, #6 ) ;
#8 = ADVANCED_FACE ( 'NONE', ( #265 ), #126, .F. ) ;
#9 = DIRECTION ( 'NONE',  ( -0.000000000000000000, -0.000000000000000000, -1.000000000000000000 ) ) ;
#10 = CYLINDRICAL_SURFACE ( 'NONE', #230, 9.000000000000000000 ) ;
#11 = FACE_OUTER_BOUND ( 'NONE', #172, .T. ) ;
#12 = PERSON_AND_ORGANIZATION ( #235, #188 ) ;
#13 = AXIS2_PLACEMENT_3D ( 'NONE', #58, #155, #133 ) ;
#14 = CARTESIAN_POINT ( 'NONE',  ( 0.000000000000000000, 0.000000000000000000, 7.200000000000011724 ) ) ;
#15 = EDGE_CURVE ( 'NONE', #102, #150, #154, .T. ) ;
#16 = DIRECTION ( 'NONE',  ( 1.000000000000000000, 0.000000000000000000, 0.000000000000000000 ) ) ;
#17 = COORDINATED_UNIVERSAL_TIME_OFFSET ( 1, 0, .AHEAD. ) ;
#18 = EDGE_CURVE ( 'NONE', #282, #150, #211, .T. ) ;
#19 = LOCAL_TIME ( 11, 36, 48.00000000000000000, #278 ) ;
#20 = ORIENTED_EDGE ( 'NONE', *, *, #70, .T. ) ;
#21 = EDGE_CURVE ( 'NONE', #150, #102, #121, .T. ) ;
#22 = VERTEX_POINT ( 'NONE', #105 ) ;
#23 = AXIS2_PLACEMENT_3D ( 'NONE', #194, #240, #167 ) ;
#24 = DIRECTION ( 'NONE',  ( -0.000000000000000000, -0.000000000000000000, -1.000000000000000000 ) ) ;
#25 = CC_DESIGN_APPROVAL ( #270, ( #54 ) ) ;
#26 = DIRECTION ( 'NONE',  ( 1.000000000000000000, 0.000000000000000000, -0.000000000000000000 ) ) ;
#27 = ORIENTED_EDGE ( 'NONE', *, *, #46, .T. ) ;
#28 = DIRECTION ( 'NONE',  ( 0.000000000000000000, 0.000000000000000000, 1.000000000000000000 ) ) ;
#29 = CIRCLE ( 'NONE', #119, 12.00000000000000178 ) ;
#30 = ORIENTED_EDGE ( 'NONE', *, *, #21, .T. ) ;
#31 = CYLINDRICAL_SURFACE ( 'NONE', #204, 12.00000000000000178 ) ;
#32 = DIRECTION ( 'NONE',  ( 1.224646799147353207E-16, 1.000000000000000000, -0.000000000000000000 ) ) ;
#33 = PERSON_AND_ORGANIZATION ( #235, #188 ) ;
#34 = AXIS2_PLACEMENT_3D ( 'NONE', #153, #110, #249 ) ;
#35 = FACE_OUTER_BOUND ( 'NONE', #237, .T. ) ;
#36 = CARTESIAN_POINT ( 'NONE',  ( 0.000000000000000000, 0.000000000000000000, 207.0000000000000284 ) ) ;
#37 = PERSON_AND_ORGANIZATION ( #235, #188 ) ;
#38 = CC_DESIGN_DATE_AND_TIME_ASSIGNMENT ( #253, #227, ( #3 ) ) ;
#39 = CYLINDRICAL_SURFACE ( 'NONE', #103, 9.000000000000000000 ) ;
#40 = DATE_AND_TIME ( #200, #173 ) ;
#41 = DIRECTION ( 'NONE',  ( 1.000000000000000000, 0.000000000000000000, 0.000000000000000000 ) ) ;
#42 = APPROVAL_DATE_TIME ( #40, #260 ) ;
#43 = ORIENTED_EDGE ( 'NONE', *, *, #21, .F. ) ;
#44 = PRODUCT_DEFINITION_FORMATION_WITH_SPECIFIED_SOURCE ( 'LIBOVOLNÝ', '', #198, .NOT_KNOWN. ) ;
#45 = VERTEX_POINT ( 'NONE', #267 ) ;
#46 = EDGE_CURVE ( 'NONE', #144, #184, #101, .T. ) ;
#47 = APPLICATION_CONTEXT ( 'configuration controlled 3d designs of mechanical parts and assemblies' ) ;
#48 = ORIENTED_EDGE ( 'NONE', *, *, #124, .T. ) ;
#49 =( GEOMETRIC_REPRESENTATION_CONTEXT ( 3 ) GLOBAL_UNCERTAINTY_ASSIGNED_CONTEXT ( ( #86 ) ) GLOBAL_UNIT_ASSIGNED_CONTEXT ( ( #62, #137, #297 ) ) REPRESENTATION_CONTEXT ( 'NONE', 'WORKASPACE' ) );
#50 = CARTESIAN_POINT ( 'NONE',  ( -12.00000000000000178, 0.000000000000000000, 7.000000000000000000 ) ) ;
#51 = ADVANCED_FACE ( 'NONE', ( #56 ), #263, .F. ) ;
#52 = EDGE_LOOP ( 'NONE', ( #255, #20, #307, #261 ) ) ;
#53 = CARTESIAN_POINT ( 'NONE',  ( 0.000000000000000000, 0.000000000000000000, 7.200000000000011724 ) ) ;
#54 = SECURITY_CLASSIFICATION ( '', '', #300 ) ;
#55 = CC_DESIGN_PERSON_AND_ORGANIZATION_ASSIGNMENT ( #92, #59, ( #54 ) ) ;
#56 = FACE_OUTER_BOUND ( 'NONE', #174, .T. ) ;
#57 = DIRECTION ( 'NONE',  ( -0.000000000000000000, -0.000000000000000000, -1.000000000000000000 ) ) ;
#58 = CARTESIAN_POINT ( 'NONE',  ( 0.000000000000000000, 0.000000000000000000, 7.000000000000000000 ) ) ;
#59 = PERSON_AND_ORGANIZATION_ROLE ( 'classification_officer' ) ;
#60 = AXIS2_PLACEMENT_3D ( 'NONE', #14, #223, #111 ) ;
#61 = DIRECTION ( 'NONE',  ( -1.000000000000000000, 0.000000000000000000, 0.000000000000000000 ) ) ;
#62 =( LENGTH_UNIT ( ) NAMED_UNIT ( * ) SI_UNIT ( .MILLI., .METRE. ) );
#63 = ADVANCED_FACE ( 'NONE', ( #125 ), #100, .T. ) ;
#64 = CARTESIAN_POINT ( 'NONE',  ( 0.000000000000000000, 0.000000000000000000, 7.000000000000000000 ) ) ;
#65 = APPLICATION_PROTOCOL_DEFINITION ( 'international standard', 'config_control_design', 1994, #233 ) ;
#66 = CARTESIAN_POINT ( 'NONE',  ( 0.000000000000000000, 0.000000000000000000, 207.0000000000000284 ) ) ;
#67 = CIRCLE ( 'NONE', #294, 9.000000000000000000 ) ;
#68 = PERSON_AND_ORGANIZATION ( #235, #188 ) ;
#69 = AXIS2_PLACEMENT_3D ( 'NONE', #66, #130, #197 ) ;
#70 = EDGE_CURVE ( 'NONE', #187, #5, #169, .T. ) ;
#71 = ORIENTED_EDGE ( 'NONE', *, *, #115, .T. ) ;
#72 = ORIENTED_EDGE ( 'NONE', *, *, #70, .F. ) ;
#73 = CIRCLE ( 'NONE', #112, 0.2000000000000005107 ) ;
#74 = ORIENTED_EDGE ( 'NONE', *, *, #236, .T. ) ;
#75 = DIRECTION ( 'NONE',  ( 0.000000000000000000, 0.000000000000000000, 1.000000000000000000 ) ) ;
#76 = DIRECTION ( 'NONE',  ( -1.000000000000000000, 0.000000000000000000, 0.000000000000000000 ) ) ;
#77 = ORIENTED_EDGE ( 'NONE', *, *, #18, .F. ) ;
#78 = CARTESIAN_POINT ( 'NONE',  ( 0.000000000000000000, 0.000000000000000000, 7.000000000000000000 ) ) ;
#79 = EDGE_CURVE ( 'NONE', #45, #187, #67, .T. ) ;
#80 = ORIENTED_EDGE ( 'NONE', *, *, #115, .F. ) ;
#81 = DIRECTION ( 'NONE',  ( -0.000000000000000000, -0.000000000000000000, -1.000000000000000000 ) ) ;
#82 = FACE_OUTER_BOUND ( 'NONE', #259, .T. ) ;
#83 = MECHANICAL_CONTEXT ( 'NONE', #47, 'mechanical' ) ;
#84 = DIRECTION ( 'NONE',  ( 0.000000000000000000, -1.000000000000000000, 0.000000000000000000 ) ) ;
#85 = EDGE_CURVE ( 'NONE', #187, #45, #106, .T. ) ;
#86 = UNCERTAINTY_MEASURE_WITH_UNIT (LENGTH_MEASURE( 1.000000000000000082E-05 ), #62, 'distance_accuracy_value', 'NONE');
#87 = CLOSED_SHELL ( 'NONE', ( #8, #210, #63, #166, #93, #51, #191, #120, #99 ) ) ;
#88 = APPROVAL_DATE_TIME ( #159, #258 ) ;
#89 = CARTESIAN_POINT ( 'NONE',  ( -9.199999999999999289, 1.126675055215564822E-15, 7.200000000000011724 ) ) ;
#90 = PERSON_AND_ORGANIZATION_ROLE ( 'design_owner' ) ;
#91 = CARTESIAN_POINT ( 'NONE',  ( 12.00000000000000178, 1.469576158976824144E-15, 0.000000000000000000 ) ) ;
#92 = PERSON_AND_ORGANIZATION ( #235, #188 ) ;
#93 = ADVANCED_FACE ( 'NONE', ( #245, #225 ), #220, .T. ) ;
#94 = ORIENTED_EDGE ( 'NONE', *, *, #18, .T. ) ;
#95 = ORIENTED_EDGE ( 'NONE', *, *, #186, .F. ) ;
#96 = CC_DESIGN_DATE_AND_TIME_ASSIGNMENT ( #161, #132, ( #54 ) ) ;
#97 = CC_DESIGN_SECURITY_CLASSIFICATION ( #54, ( #44 ) ) ;
#98 = CARTESIAN_POINT ( 'NONE',  ( 0.000000000000000000, 0.000000000000000000, 0.000000000000000000 ) ) ;
#99 = ADVANCED_FACE ( 'NONE', ( #35 ), #2, .F. ) ;
#100 = CYLINDRICAL_SURFACE ( 'NONE', #141, 12.00000000000000178 ) ;
#101 = CIRCLE ( 'NONE', #23, 9.199999999999999289 ) ;
#102 = VERTEX_POINT ( 'NONE', #91 ) ;
#103 = AXIS2_PLACEMENT_3D ( 'NONE', #36, #57, #243 ) ;
#104 = DIRECTION ( 'NONE',  ( 1.000000000000000000, 0.000000000000000000, 0.000000000000000000 ) ) ;
#105 = CARTESIAN_POINT ( 'NONE',  ( -9.000000000000000000, 0.000000000000000000, 7.200000000000011724 ) ) ;
#106 = CIRCLE ( 'NONE', #301, 9.000000000000000000 ) ;
#107 = PLANE ( 'NONE',  #69 ) ;
#108 = DIRECTION ( 'NONE',  ( 1.000000000000000000, 0.000000000000000000, 0.000000000000000000 ) ) ;
#109 = CARTESIAN_POINT ( 'NONE',  ( 0.000000000000000000, 0.000000000000000000, 7.000000000000000000 ) ) ;
#110 = DIRECTION ( 'NONE',  ( 0.000000000000000000, 0.000000000000000000, 1.000000000000000000 ) ) ;
#111 = DIRECTION ( 'NONE',  ( 1.000000000000000000, 0.000000000000000000, 0.000000000000000000 ) ) ;
#112 = AXIS2_PLACEMENT_3D ( 'NONE', #89, #32, #298 ) ;
#113 = PERSON_AND_ORGANIZATION_ROLE ( 'creator' ) ;
#114 = CARTESIAN_POINT ( 'NONE',  ( -9.199999999999999289, 1.126675055215564822E-15, 7.000000000000006217 ) ) ;
#115 = EDGE_CURVE ( 'NONE', #5, #184, #252, .T. ) ;
#116 = APPROVAL_ROLE ( '' ) ;
#117 = PERSON_AND_ORGANIZATION_ROLE ( 'design_supplier' ) ;
#118 = VECTOR ( 'NONE', #24, 1000.000000000000000 ) ;
#119 = AXIS2_PLACEMENT_3D ( 'NONE', #64, #158, #41 ) ;
#120 = ADVANCED_FACE ( 'NONE', ( #11 ), #107, .T. ) ;
#121 = CIRCLE ( 'NONE', #288, 12.00000000000000178 ) ;
#122 = VECTOR ( 'NONE', #81, 1000.000000000000000 ) ;
#123 = ORIENTED_EDGE ( 'NONE', *, *, #124, .F. ) ;
#124 = EDGE_CURVE ( 'NONE', #184, #144, #136, .T. ) ;
#125 = FACE_OUTER_BOUND ( 'NONE', #281, .T. ) ;
#126 = TOROIDAL_SURFACE ( 'NONE', #262, 9.199999999999999289, 0.2000000000000000111 ) ;
#127 = LOCAL_TIME ( 11, 36, 48.00000000000000000, #17 ) ;
#128 = EDGE_LOOP ( 'NONE', ( #95, #304, #123, #80 ) ) ;
#129 = ORIENTED_EDGE ( 'NONE', *, *, #171, .T. ) ;
#130 = DIRECTION ( 'NONE',  ( 0.000000000000000000, 0.000000000000000000, 1.000000000000000000 ) ) ;
#131 = DIRECTION ( 'NONE',  ( 0.000000000000000000, 0.000000000000000000, 1.000000000000000000 ) ) ;
#132 = DATE_TIME_ROLE ( 'classification_date' ) ;
#133 = DIRECTION ( 'NONE',  ( 1.000000000000000000, 0.000000000000000000, 0.000000000000000000 ) ) ;
#134 = CARTESIAN_POINT ( 'NONE',  ( -9.000000000000000000, 0.000000000000000000, 207.0000000000000284 ) ) ;
#135 = DIRECTION ( 'NONE',  ( 0.000000000000000000, 0.000000000000000000, 1.000000000000000000 ) ) ;
#136 = CIRCLE ( 'NONE', #148, 9.199999999999999289 ) ;
#137 =( NAMED_UNIT ( * ) PLANE_ANGLE_UNIT ( ) SI_UNIT ( $, .RADIAN. ) );
#138 = CARTESIAN_POINT ( 'NONE',  ( 0.000000000000000000, 0.000000000000000000, 7.200000000000011724 ) ) ;
#139 = PERSON_AND_ORGANIZATION ( #235, #188 ) ;
#140 = EDGE_LOOP ( 'NONE', ( #165, #74 ) ) ;
#141 = AXIS2_PLACEMENT_3D ( 'NONE', #78, #217, #76 ) ;
#142 = CIRCLE ( 'NONE', #215, 9.000000000000000000 ) ;
#143 = EDGE_LOOP ( 'NONE', ( #231, #189, #94, #30 ) ) ;
#144 = VERTEX_POINT ( 'NONE', #114 ) ;
#145 = CARTESIAN_POINT ( 'NONE',  ( 9.000000000000000000, 1.102182119232617714E-15, 207.0000000000000284 ) ) ;
#146 = DIRECTION ( 'NONE',  ( 1.000000000000000000, 0.000000000000000000, 0.000000000000000000 ) ) ;
#147 = CC_DESIGN_PERSON_AND_ORGANIZATION_ASSIGNMENT ( #68, #117, ( #44 ) ) ;
#148 = AXIS2_PLACEMENT_3D ( 'NONE', #241, #9, #108 ) ;
#149 = CARTESIAN_POINT ( 'NONE',  ( 9.000000000000000000, 1.102182119232617714E-15, 7.200000000000011724 ) ) ;
#150 = VERTEX_POINT ( 'NONE', #201 ) ;
#151 = DIRECTION ( 'NONE',  ( -0.000000000000000000, -0.000000000000000000, -1.000000000000000000 ) ) ;
#152 = PRODUCT_DEFINITION_SHAPE ( 'NONE', 'NONE',  #3 ) ;
#153 = CARTESIAN_POINT ( 'NONE',  ( 0.000000000000000000, 0.000000000000000000, 0.000000000000000000 ) ) ;
#154 = CIRCLE ( 'NONE', #250, 12.00000000000000178 ) ;
#155 = DIRECTION ( 'NONE',  ( 0.000000000000000000, 0.000000000000000000, 1.000000000000000000 ) ) ;
#156 = COORDINATED_UNIVERSAL_TIME_OFFSET ( 1, 0, .AHEAD. ) ;
#157 = DIRECTION ( 'NONE',  ( 1.000000000000000000, 0.000000000000000000, 0.000000000000000000 ) ) ;
#158 = DIRECTION ( 'NONE',  ( 0.000000000000000000, 0.000000000000000000, 1.000000000000000000 ) ) ;
#159 = DATE_AND_TIME ( #207, #302 ) ;
#160 = AXIS2_PLACEMENT_3D ( 'NONE', #218, #84, #182 ) ;
#161 = DATE_AND_TIME ( #183, #19 ) ;
#162 = ORIENTED_EDGE ( 'NONE', *, *, #46, .F. ) ;
#163 = ORIENTED_EDGE ( 'NONE', *, *, #213, .T. ) ;
#164 = CC_DESIGN_PERSON_AND_ORGANIZATION_ASSIGNMENT ( #12, #277, ( #3 ) ) ;
#165 = ORIENTED_EDGE ( 'NONE', *, *, #209, .T. ) ;
#166 = ADVANCED_FACE ( 'NONE', ( #248 ), #31, .T. ) ;
#167 = DIRECTION ( 'NONE',  ( 1.000000000000000000, 0.000000000000000000, 0.000000000000000000 ) ) ;
#168 = VECTOR ( 'NONE', #275, 1000.000000000000000 ) ;
#169 = LINE ( 'NONE', #145, #196 ) ;
#170 = EDGE_LOOP ( 'NONE', ( #48, #27 ) ) ;
#171 = EDGE_CURVE ( 'NONE', #193, #102, #176, .T. ) ;
#172 = EDGE_LOOP ( 'NONE', ( #264, #192 ) ) ;
#173 = LOCAL_TIME ( 11, 36, 48.00000000000000000, #291 ) ;
#174 = EDGE_LOOP ( 'NONE', ( #43, #190 ) ) ;
#175 = DIRECTION ( 'NONE',  ( 0.000000000000000000, 0.000000000000000000, 1.000000000000000000 ) ) ;
#176 = LINE ( 'NONE', #268, #122 ) ;
#177 = PERSON_AND_ORGANIZATION ( #235, #188 ) ;
#178 = FACE_OUTER_BOUND ( 'NONE', #52, .T. ) ;
#179 = APPROVAL_PERSON_ORGANIZATION ( #177, #258, #208 ) ;
#180 = CARTESIAN_POINT ( 'NONE',  ( 0.000000000000000000, 0.000000000000000000, 207.0000000000000284 ) ) ;
#181 = CALENDAR_DATE ( 2022, 7, 7 ) ;
#182 = DIRECTION ( 'NONE',  ( 0.000000000000000000, 0.000000000000000000, -1.000000000000000000 ) ) ;
#183 = CALENDAR_DATE ( 2022, 7, 7 ) ;
#184 = VERTEX_POINT ( 'NONE', #206 ) ;
#185 = APPROVAL_STATUS ( 'not_yet_approved' ) ;
#186 = EDGE_CURVE ( 'NONE', #22, #5, #232, .T. ) ;
#187 = VERTEX_POINT ( 'NONE', #292 ) ;
#188 = ORGANIZATION ( 'NEURÈENÝ', 'NEURÈENÝ', '' ) ;
#189 = ORIENTED_EDGE ( 'NONE', *, *, #209, .F. ) ;
#190 = ORIENTED_EDGE ( 'NONE', *, *, #15, .F. ) ;
#191 = ADVANCED_FACE ( 'NONE', ( #82 ), #39, .T. ) ;
#192 = ORIENTED_EDGE ( 'NONE', *, *, #85, .T. ) ;
#193 = VERTEX_POINT ( 'NONE', #269 ) ;
#194 = CARTESIAN_POINT ( 'NONE',  ( 0.000000000000000000, 0.000000000000000000, 7.000000000000000000 ) ) ;
#195 = EDGE_CURVE ( 'NONE', #22, #144, #73, .T. ) ;
#196 = VECTOR ( 'NONE', #214, 1000.000000000000000 ) ;
#197 = DIRECTION ( 'NONE',  ( 1.000000000000000000, 0.000000000000000000, -0.000000000000000000 ) ) ;
#198 = PRODUCT ( 'c71b', 'c71b', '', ( #83 ) ) ;
#199 = CARTESIAN_POINT ( 'NONE',  ( 0.000000000000000000, 0.000000000000000000, 7.200000000000011724 ) ) ;
#200 = CALENDAR_DATE ( 2022, 7, 7 ) ;
#201 = CARTESIAN_POINT ( 'NONE',  ( -12.00000000000000178, 0.000000000000000000, 0.000000000000000000 ) ) ;
#202 = APPLICATION_PROTOCOL_DEFINITION ( 'international standard', 'config_control_design', 1994, #47 ) ;
#203 = CARTESIAN_POINT ( 'NONE',  ( 0.000000000000000000, 0.000000000000000000, 207.0000000000000284 ) ) ;
#204 = AXIS2_PLACEMENT_3D ( 'NONE', #296, #151, #289 ) ;
#205 = CC_DESIGN_PERSON_AND_ORGANIZATION_ASSIGNMENT ( #224, #113, ( #44 ) ) ;
#206 = CARTESIAN_POINT ( 'NONE',  ( 9.199999999999999289, 0.000000000000000000, 7.000000000000006217 ) ) ;
#207 = CALENDAR_DATE ( 2022, 7, 7 ) ;
#208 = APPROVAL_ROLE ( '' ) ;
#209 = EDGE_CURVE ( 'NONE', #282, #193, #273, .T. ) ;
#210 = ADVANCED_FACE ( 'NONE', ( #178 ), #10, .T. ) ;
#211 = LINE ( 'NONE', #50, #118 ) ;
#212 = CARTESIAN_POINT ( 'NONE',  ( 0.000000000000000000, 0.000000000000000000, 0.000000000000000000 ) ) ;
#213 = EDGE_CURVE ( 'NONE', #45, #22, #247, .T. ) ;
#214 = DIRECTION ( 'NONE',  ( -0.000000000000000000, -0.000000000000000000, -1.000000000000000000 ) ) ;
#215 = AXIS2_PLACEMENT_3D ( 'NONE', #138, #228, #16 ) ;
#216 = ORIENTED_EDGE ( 'NONE', *, *, #299, .F. ) ;
#217 = DIRECTION ( 'NONE',  ( -0.000000000000000000, -0.000000000000000000, -1.000000000000000000 ) ) ;
#218 = CARTESIAN_POINT ( 'NONE',  ( 9.199999999999999289, 0.000000000000000000, 7.200000000000011724 ) ) ;
#219 = CC_DESIGN_APPROVAL ( #260, ( #3 ) ) ;
#220 = PLANE ( 'NONE',  #7 ) ;
#221 = DIRECTION ( 'NONE',  ( 1.000000000000000000, 0.000000000000000000, 0.000000000000000000 ) ) ;
#222 = DATE_AND_TIME ( #246, #305 ) ;
#223 = DIRECTION ( 'NONE',  ( 0.000000000000000000, 0.000000000000000000, 1.000000000000000000 ) ) ;
#224 = PERSON_AND_ORGANIZATION ( #235, #188 ) ;
#225 = FACE_OUTER_BOUND ( 'NONE', #140, .T. ) ;
#226 = APPROVAL_PERSON_ORGANIZATION ( #139, #270, #271 ) ;
#227 = DATE_TIME_ROLE ( 'creation_date' ) ;
#228 = DIRECTION ( 'NONE',  ( 0.000000000000000000, 0.000000000000000000, 1.000000000000000000 ) ) ;
#229 = APPROVAL_STATUS ( 'not_yet_approved' ) ;
#230 = AXIS2_PLACEMENT_3D ( 'NONE', #180, #274, #61 ) ;
#231 = ORIENTED_EDGE ( 'NONE', *, *, #171, .F. ) ;
#232 = CIRCLE ( 'NONE', #244, 9.000000000000000000 ) ;
#233 = APPLICATION_CONTEXT ( 'configuration controlled 3d designs of mechanical parts and assemblies' ) ;
#234 = DIRECTION ( 'NONE',  ( 0.000000000000000000, 0.000000000000000000, 1.000000000000000000 ) ) ;
#235 = PERSON ( 'NEURÈENÝ', 'NEURÈENÝ', 'NEURÈENÝ', ('NEURÈENÝ'), ('NEURÈENÝ'), ('NEURÈENÝ') ) ;
#236 = EDGE_CURVE ( 'NONE', #193, #282, #29, .T. ) ;
#237 = EDGE_LOOP ( 'NONE', ( #284, #216, #71, #162 ) ) ;
#238 = ORIENTED_EDGE ( 'NONE', *, *, #186, .T. ) ;
#239 = MANIFOLD_SOLID_BREP ( 'Zaoblit1', #87 ) ;
#240 = DIRECTION ( 'NONE',  ( -0.000000000000000000, -0.000000000000000000, -1.000000000000000000 ) ) ;
#241 = CARTESIAN_POINT ( 'NONE',  ( 0.000000000000000000, 0.000000000000000000, 7.000000000000000000 ) ) ;
#242 = DESIGN_CONTEXT ( 'detailed design', #233, 'design' ) ;
#243 = DIRECTION ( 'NONE',  ( -1.000000000000000000, 0.000000000000000000, 0.000000000000000000 ) ) ;
#244 = AXIS2_PLACEMENT_3D ( 'NONE', #199, #175, #290 ) ;
#245 = FACE_BOUND ( 'NONE', #170, .T. ) ;
#246 = CALENDAR_DATE ( 2022, 7, 7 ) ;
#247 = LINE ( 'NONE', #134, #168 ) ;
#248 = FACE_OUTER_BOUND ( 'NONE', #143, .T. ) ;
#249 = DIRECTION ( 'NONE',  ( 1.000000000000000000, 0.000000000000000000, 0.000000000000000000 ) ) ;
#250 = AXIS2_PLACEMENT_3D ( 'NONE', #212, #287, #104 ) ;
#251 = CARTESIAN_POINT ( 'NONE',  ( -12.00000000000000178, 0.000000000000000000, 7.000000000000000000 ) ) ;
#252 = CIRCLE ( 'NONE', #160, 0.1999999999999996503 ) ;
#253 = DATE_AND_TIME ( #181, #127 ) ;
#254 = ORIENTED_EDGE ( 'NONE', *, *, #15, .T. ) ;
#255 = ORIENTED_EDGE ( 'NONE', *, *, #85, .F. ) ;
#256 = APPROVAL_DATE_TIME ( #222, #270 ) ;
#257 = APPROVAL_PERSON_ORGANIZATION ( #37, #260, #116 ) ;
#258 = APPROVAL ( #293, 'NEURÈENÝ' ) ;
#259 = EDGE_LOOP ( 'NONE', ( #72, #285, #163, #238 ) ) ;
#260 = APPROVAL ( #185, 'NEURÈENÝ' ) ;
#261 = ORIENTED_EDGE ( 'NONE', *, *, #213, .F. ) ;
#262 = AXIS2_PLACEMENT_3D ( 'NONE', #53, #4, #146 ) ;
#263 = PLANE ( 'NONE',  #272 ) ;
#264 = ORIENTED_EDGE ( 'NONE', *, *, #79, .T. ) ;
#265 = FACE_OUTER_BOUND ( 'NONE', #128, .T. ) ;
#266 = CC_DESIGN_PERSON_AND_ORGANIZATION_ASSIGNMENT ( #33, #90, ( #198 ) ) ;
#267 = CARTESIAN_POINT ( 'NONE',  ( -9.000000000000000000, 0.000000000000000000, 207.0000000000000284 ) ) ;
#268 = CARTESIAN_POINT ( 'NONE',  ( 12.00000000000000178, 1.469576158976824144E-15, 7.000000000000000000 ) ) ;
#269 = CARTESIAN_POINT ( 'NONE',  ( 12.00000000000000178, 1.469576158976824144E-15, 7.000000000000000000 ) ) ;
#270 = APPROVAL ( #229, 'NEURÈENÝ' ) ;
#271 = APPROVAL_ROLE ( '' ) ;
#272 = AXIS2_PLACEMENT_3D ( 'NONE', #283, #234, #26 ) ;
#273 = CIRCLE ( 'NONE', #13, 12.00000000000000178 ) ;
#274 = DIRECTION ( 'NONE',  ( -0.000000000000000000, -0.000000000000000000, -1.000000000000000000 ) ) ;
#275 = DIRECTION ( 'NONE',  ( -0.000000000000000000, -0.000000000000000000, -1.000000000000000000 ) ) ;
#276 = COORDINATED_UNIVERSAL_TIME_OFFSET ( 1, 0, .AHEAD. ) ;
#277 = PERSON_AND_ORGANIZATION_ROLE ( 'creator' ) ;
#278 = COORDINATED_UNIVERSAL_TIME_OFFSET ( 1, 0, .AHEAD. ) ;
#279 = ADVANCED_BREP_SHAPE_REPRESENTATION ( 'c71b', ( #239, #34 ), #49 ) ;
#280 = ORIENTED_EDGE ( 'NONE', *, *, #236, .F. ) ;
#281 = EDGE_LOOP ( 'NONE', ( #280, #129, #254, #77 ) ) ;
#282 = VERTEX_POINT ( 'NONE', #251 ) ;
#283 = CARTESIAN_POINT ( 'NONE',  ( 0.000000000000000000, 0.000000000000000000, 0.000000000000000000 ) ) ;
#284 = ORIENTED_EDGE ( 'NONE', *, *, #195, .F. ) ;
#285 = ORIENTED_EDGE ( 'NONE', *, *, #79, .F. ) ;
#286 = PRODUCT_RELATED_PRODUCT_CATEGORY ( 'detail', '', ( #198 ) ) ;
#287 = DIRECTION ( 'NONE',  ( 0.000000000000000000, 0.000000000000000000, 1.000000000000000000 ) ) ;
#288 = AXIS2_PLACEMENT_3D ( 'NONE', #98, #75, #306 ) ;
#289 = DIRECTION ( 'NONE',  ( -1.000000000000000000, 0.000000000000000000, 0.000000000000000000 ) ) ;
#290 = DIRECTION ( 'NONE',  ( 1.000000000000000000, 0.000000000000000000, 0.000000000000000000 ) ) ;
#291 = COORDINATED_UNIVERSAL_TIME_OFFSET ( 1, 0, .AHEAD. ) ;
#292 = CARTESIAN_POINT ( 'NONE',  ( 9.000000000000000000, 1.102182119232617714E-15, 207.0000000000000284 ) ) ;
#293 = APPROVAL_STATUS ( 'not_yet_approved' ) ;
#294 = AXIS2_PLACEMENT_3D ( 'NONE', #1, #28, #221 ) ;
#295 = CC_DESIGN_APPROVAL ( #258, ( #44 ) ) ;
#296 = CARTESIAN_POINT ( 'NONE',  ( 0.000000000000000000, 0.000000000000000000, 7.000000000000000000 ) ) ;
#297 =( NAMED_UNIT ( * ) SI_UNIT ( $, .STERADIAN. ) SOLID_ANGLE_UNIT ( ) );
#298 = DIRECTION ( 'NONE',  ( -1.000000000000000000, 1.224646799147353207E-16, 0.000000000000000000 ) ) ;
#299 = EDGE_CURVE ( 'NONE', #5, #22, #142, .T. ) ;
#300 = SECURITY_CLASSIFICATION_LEVEL ( 'unclassified' ) ;
#301 = AXIS2_PLACEMENT_3D ( 'NONE', #203, #135, #157 ) ;
#302 = LOCAL_TIME ( 11, 36, 48.00000000000000000, #276 ) ;
#303 = SHAPE_DEFINITION_REPRESENTATION ( #152, #279 ) ;
#304 = ORIENTED_EDGE ( 'NONE', *, *, #195, .T. ) ;
#305 = LOCAL_TIME ( 11, 36, 48.00000000000000000, #156 ) ;
#306 = DIRECTION ( 'NONE',  ( 1.000000000000000000, 0.000000000000000000, 0.000000000000000000 ) ) ;
#307 = ORIENTED_EDGE ( 'NONE', *, *, #299, .T. ) ;
ENDSEC;
END-ISO-10303-21;
