ISO-10303-21;
HEADER;
FILE_DESCRIPTION (( 'STEP AP203' ),
    '1' );
FILE_NAME ('b82c.STEP',
    '2023-02-12T10:42:43',
    ( '' ),
    ( '' ),
    'SwSTEP 2.0',
    'SolidWorks 2019',
    '' );
FILE_SCHEMA (( 'CONFIG_CONTROL_DESIGN' ));
ENDSEC;

DATA;
#1 = EDGE_LOOP ( 'NONE', ( #225, #141, #25, #179 ) ) ;
#2 = CARTESIAN_POINT ( 'NONE',  ( 8.000000000000000000, 9.797174393178825657E-16, 800.0000000000000000 ) ) ;
#3 = EDGE_CURVE ( 'NONE', #121, #104, #213, .T. ) ;
#4 = AXIS2_PLACEMENT_3D ( 'NONE', #83, #186, #206 ) ;
#5 = LOCAL_TIME ( 11, 42, 43.00000000000000000, #29 ) ;
#6 = DIRECTION ( 'NONE',  ( -0.000000000000000000, -0.000000000000000000, -1.000000000000000000 ) ) ;
#7 = LOCAL_TIME ( 11, 42, 43.00000000000000000, #251 ) ;
#8 = VERTEX_POINT ( 'NONE', #31 ) ;
#9 = CALENDAR_DATE ( 2023, 12, 2 ) ;
#10 =( LENGTH_UNIT ( ) NAMED_UNIT ( * ) SI_UNIT ( .MILLI., .METRE. ) );
#11 = LINE ( 'NONE', #181, #129 ) ;
#12 = ORGANIZATION ( 'NEURÈENÝ', 'NEURÈENÝ', '' ) ;
#13 = PERSON_AND_ORGANIZATION ( #184, #12 ) ;
#14 = DATE_AND_TIME ( #92, #201 ) ;
#15 = DIRECTION ( 'NONE',  ( 0.000000000000000000, 0.000000000000000000, 1.000000000000000000 ) ) ;
#16 = AXIS2_PLACEMENT_3D ( 'NONE', #204, #158, #241 ) ;
#17 = LINE ( 'NONE', #23, #117 ) ;
#18 = AXIS2_PLACEMENT_3D ( 'NONE', #133, #114, #168 ) ;
#19 = CIRCLE ( 'NONE', #98, 11.00000000000000000 ) ;
#20 = EDGE_LOOP ( 'NONE', ( #100, #183, #229, #119 ) ) ;
#21 = VERTEX_POINT ( 'NONE', #32 ) ;
#22 = CIRCLE ( 'NONE', #160, 11.00000000000000000 ) ;
#23 = CARTESIAN_POINT ( 'NONE',  ( -11.00000000000000000, 0.000000000000000000, 7.000000000000000000 ) ) ;
#24 = APPROVAL ( #151, 'NEURÈENÝ' ) ;
#25 = ORIENTED_EDGE ( 'NONE', *, *, #153, .T. ) ;
#26 = DIRECTION ( 'NONE',  ( -1.000000000000000000, 0.000000000000000000, 0.000000000000000000 ) ) ;
#27 = AXIS2_PLACEMENT_3D ( 'NONE', #68, #128, #139 ) ;
#28 = ORIENTED_EDGE ( 'NONE', *, *, #62, .T. ) ;
#29 = COORDINATED_UNIVERSAL_TIME_OFFSET ( 1, 0, .AHEAD. ) ;
#30 = PERSON_AND_ORGANIZATION_ROLE ( 'design_owner' ) ;
#31 = CARTESIAN_POINT ( 'NONE',  ( 8.000000000000000000, 9.797174393178825657E-16, 800.0000000000000000 ) ) ;
#32 = CARTESIAN_POINT ( 'NONE',  ( -8.000000000000000000, 0.000000000000000000, 7.000000000000000000 ) ) ;
#33 = DATE_TIME_ROLE ( 'creation_date' ) ;
#34 = DIRECTION ( 'NONE',  ( 0.000000000000000000, 0.000000000000000000, 1.000000000000000000 ) ) ;
#35 = LOCAL_TIME ( 11, 42, 43.00000000000000000, #250 ) ;
#36 = LINE ( 'NONE', #96, #63 ) ;
#37 = AXIS2_PLACEMENT_3D ( 'NONE', #110, #237, #135 ) ;
#38 = CARTESIAN_POINT ( 'NONE',  ( -11.00000000000000000, 0.000000000000000000, 0.000000000000000000 ) ) ;
#39 = EDGE_CURVE ( 'NONE', #8, #209, #53, .T. ) ;
#40 = CYLINDRICAL_SURFACE ( 'NONE', #103, 8.000000000000000000 ) ;
#41 = COORDINATED_UNIVERSAL_TIME_OFFSET ( 1, 0, .AHEAD. ) ;
#42 = VERTEX_POINT ( 'NONE', #156 ) ;
#43 = VECTOR ( 'NONE', #145, 1000.000000000000000 ) ;
#44 = PRODUCT_DEFINITION_FORMATION_WITH_SPECIFIED_SOURCE ( 'LIBOVOLNÝ', '', #94, .NOT_KNOWN. ) ;
#45 = UNCERTAINTY_MEASURE_WITH_UNIT (LENGTH_MEASURE( 1.000000000000000082E-05 ), #10, 'distance_accuracy_value', 'NONE');
#46 = EDGE_CURVE ( 'NONE', #209, #21, #56, .T. ) ;
#47 = CYLINDRICAL_SURFACE ( 'NONE', #102, 8.000000000000000000 ) ;
#48 = APPROVAL_DATE_TIME ( #86, #148 ) ;
#49 = EDGE_LOOP ( 'NONE', ( #28, #120 ) ) ;
#50 = APPLICATION_CONTEXT ( 'configuration controlled 3d designs of mechanical parts and assemblies' ) ;
#51 = AXIS2_PLACEMENT_3D ( 'NONE', #249, #238, #219 ) ;
#52 = ADVANCED_FACE ( 'NONE', ( #189 ), #47, .T. ) ;
#53 = LINE ( 'NONE', #2, #43 ) ;
#54 = PERSON_AND_ORGANIZATION ( #184, #12 ) ;
#55 = EDGE_CURVE ( 'NONE', #70, #104, #11, .T. ) ;
#56 = CIRCLE ( 'NONE', #27, 8.000000000000000000 ) ;
#57 = PLANE ( 'NONE',  #196 ) ;
#58 = CC_DESIGN_APPROVAL ( #148, ( #44 ) ) ;
#59 = FACE_OUTER_BOUND ( 'NONE', #106, .T. ) ;
#60 = APPROVAL_DATE_TIME ( #97, #221 ) ;
#61 = DIRECTION ( 'NONE',  ( -1.000000000000000000, 0.000000000000000000, 0.000000000000000000 ) ) ;
#62 = EDGE_CURVE ( 'NONE', #199, #8, #124, .T. ) ;
#63 = VECTOR ( 'NONE', #215, 1000.000000000000000 ) ;
#64 = AXIS2_PLACEMENT_3D ( 'NONE', #248, #34, #162 ) ;
#65 = ADVANCED_FACE ( 'NONE', ( #227, #195 ), #233, .T. ) ;
#66 = FACE_OUTER_BOUND ( 'NONE', #1, .T. ) ;
#67 = PRODUCT_DEFINITION ( 'NEZNÁMÝ', '', #44, #127 ) ;
#68 = CARTESIAN_POINT ( 'NONE',  ( 0.000000000000000000, 0.000000000000000000, 7.000000000000000000 ) ) ;
#69 = PERSON_AND_ORGANIZATION_ROLE ( 'creator' ) ;
#70 = VERTEX_POINT ( 'NONE', #77 ) ;
#71 = ORIENTED_EDGE ( 'NONE', *, *, #39, .F. ) ;
#72 = CIRCLE ( 'NONE', #214, 8.000000000000000000 ) ;
#73 = DIRECTION ( 'NONE',  ( 1.000000000000000000, 0.000000000000000000, 0.000000000000000000 ) ) ;
#74 = APPLICATION_PROTOCOL_DEFINITION ( 'international standard', 'config_control_design', 1994, #246 ) ;
#75 = CC_DESIGN_PERSON_AND_ORGANIZATION_ASSIGNMENT ( #81, #207, ( #44 ) ) ;
#76 = CARTESIAN_POINT ( 'NONE',  ( -8.000000000000000000, 0.000000000000000000, 800.0000000000000000 ) ) ;
#77 = CARTESIAN_POINT ( 'NONE',  ( 11.00000000000000000, 1.347111479062088405E-15, 7.000000000000000000 ) ) ;
#78 = ORIENTED_EDGE ( 'NONE', *, *, #159, .F. ) ;
#79 = ORIENTED_EDGE ( 'NONE', *, *, #82, .F. ) ;
#80 = ORIENTED_EDGE ( 'NONE', *, *, #55, .T. ) ;
#81 = PERSON_AND_ORGANIZATION ( #184, #12 ) ;
#82 = EDGE_CURVE ( 'NONE', #21, #209, #143, .T. ) ;
#83 = CARTESIAN_POINT ( 'NONE',  ( 0.000000000000000000, 0.000000000000000000, 0.000000000000000000 ) ) ;
#84 = APPROVAL_STATUS ( 'not_yet_approved' ) ;
#85 = ORIENTED_EDGE ( 'NONE', *, *, #82, .T. ) ;
#86 = DATE_AND_TIME ( #243, #255 ) ;
#87 =( GEOMETRIC_REPRESENTATION_CONTEXT ( 3 ) GLOBAL_UNCERTAINTY_ASSIGNED_CONTEXT ( ( #45 ) ) GLOBAL_UNIT_ASSIGNED_CONTEXT ( ( #10, #113, #211 ) ) REPRESENTATION_CONTEXT ( 'NONE', 'WORKASPACE' ) );
#88 = ADVANCED_FACE ( 'NONE', ( #146 ), #216, .T. ) ;
#89 = FACE_OUTER_BOUND ( 'NONE', #20, .T. ) ;
#90 = CARTESIAN_POINT ( 'NONE',  ( 0.000000000000000000, 0.000000000000000000, 7.000000000000000000 ) ) ;
#91 = DIRECTION ( 'NONE',  ( 0.000000000000000000, 0.000000000000000000, 1.000000000000000000 ) ) ;
#92 = CALENDAR_DATE ( 2023, 12, 2 ) ;
#93 = ADVANCED_FACE ( 'NONE', ( #59 ), #57, .F. ) ;
#94 = PRODUCT ( 'b82c', 'b82c', '', ( #142 ) ) ;
#95 = CALENDAR_DATE ( 2023, 12, 2 ) ;
#96 = CARTESIAN_POINT ( 'NONE',  ( -8.000000000000000000, 0.000000000000000000, 800.0000000000000000 ) ) ;
#97 = DATE_AND_TIME ( #95, #7 ) ;
#98 = AXIS2_PLACEMENT_3D ( 'NONE', #90, #253, #166 ) ;
#99 = EDGE_CURVE ( 'NONE', #42, #70, #22, .T. ) ;
#100 = ORIENTED_EDGE ( 'NONE', *, *, #200, .F. ) ;
#101 = CC_DESIGN_PERSON_AND_ORGANIZATION_ASSIGNMENT ( #205, #30, ( #94 ) ) ;
#102 = AXIS2_PLACEMENT_3D ( 'NONE', #107, #203, #26 ) ;
#103 = AXIS2_PLACEMENT_3D ( 'NONE', #192, #235, #232 ) ;
#104 = VERTEX_POINT ( 'NONE', #193 ) ;
#105 = APPROVAL_ROLE ( '' ) ;
#106 = EDGE_LOOP ( 'NONE', ( #123, #78 ) ) ;
#107 = CARTESIAN_POINT ( 'NONE',  ( 0.000000000000000000, 0.000000000000000000, 800.0000000000000000 ) ) ;
#108 = CC_DESIGN_APPROVAL ( #221, ( #67 ) ) ;
#109 = DATE_AND_TIME ( #254, #35 ) ;
#110 = CARTESIAN_POINT ( 'NONE',  ( 0.000000000000000000, 0.000000000000000000, 800.0000000000000000 ) ) ;
#111 = CC_DESIGN_PERSON_AND_ORGANIZATION_ASSIGNMENT ( #54, #167, ( #182 ) ) ;
#112 = APPROVAL_DATE_TIME ( #14, #24 ) ;
#113 =( NAMED_UNIT ( * ) PLANE_ANGLE_UNIT ( ) SI_UNIT ( $, .RADIAN. ) );
#114 = DIRECTION ( 'NONE',  ( 0.000000000000000000, 0.000000000000000000, 1.000000000000000000 ) ) ;
#115 = EDGE_CURVE ( 'NONE', #199, #21, #36, .T. ) ;
#116 = CLOSED_SHELL ( 'NONE', ( #217, #88, #155, #65, #93, #52, #226 ) ) ;
#117 = VECTOR ( 'NONE', #171, 1000.000000000000000 ) ;
#118 = APPROVAL_PERSON_ORGANIZATION ( #228, #221, #187 ) ;
#119 = ORIENTED_EDGE ( 'NONE', *, *, #115, .F. ) ;
#120 = ORIENTED_EDGE ( 'NONE', *, *, #200, .T. ) ;
#121 = VERTEX_POINT ( 'NONE', #38 ) ;
#122 = ORIENTED_EDGE ( 'NONE', *, *, #153, .F. ) ;
#123 = ORIENTED_EDGE ( 'NONE', *, *, #3, .F. ) ;
#124 = CIRCLE ( 'NONE', #16, 8.000000000000000000 ) ;
#125 = PRODUCT_RELATED_PRODUCT_CATEGORY ( 'detail', '', ( #94 ) ) ;
#126 = DATE_AND_TIME ( #9, #5 ) ;
#127 = DESIGN_CONTEXT ( 'detailed design', #50, 'design' ) ;
#128 = DIRECTION ( 'NONE',  ( 0.000000000000000000, 0.000000000000000000, 1.000000000000000000 ) ) ;
#129 = VECTOR ( 'NONE', #6, 1000.000000000000000 ) ;
#130 = CARTESIAN_POINT ( 'NONE',  ( 0.000000000000000000, 0.000000000000000000, 7.000000000000000000 ) ) ;
#131 = APPROVAL_PERSON_ORGANIZATION ( #140, #148, #105 ) ;
#132 = PLANE ( 'NONE',  #37 ) ;
#133 = CARTESIAN_POINT ( 'NONE',  ( 0.000000000000000000, 0.000000000000000000, 7.000000000000000000 ) ) ;
#134 = EDGE_CURVE ( 'NONE', #70, #42, #19, .T. ) ;
#135 = DIRECTION ( 'NONE',  ( 1.000000000000000000, 0.000000000000000000, -0.000000000000000000 ) ) ;
#136 = DIRECTION ( 'NONE',  ( 1.000000000000000000, 0.000000000000000000, 0.000000000000000000 ) ) ;
#137 = ORIENTED_EDGE ( 'NONE', *, *, #115, .T. ) ;
#138 = DIRECTION ( 'NONE',  ( -0.000000000000000000, -0.000000000000000000, -1.000000000000000000 ) ) ;
#139 = DIRECTION ( 'NONE',  ( 1.000000000000000000, 0.000000000000000000, 0.000000000000000000 ) ) ;
#140 = PERSON_AND_ORGANIZATION ( #184, #12 ) ;
#141 = ORIENTED_EDGE ( 'NONE', *, *, #99, .F. ) ;
#142 = MECHANICAL_CONTEXT ( 'NONE', #246, 'mechanical' ) ;
#143 = CIRCLE ( 'NONE', #198, 8.000000000000000000 ) ;
#144 = DIRECTION ( 'NONE',  ( 0.000000000000000000, 0.000000000000000000, 1.000000000000000000 ) ) ;
#145 = DIRECTION ( 'NONE',  ( -0.000000000000000000, -0.000000000000000000, -1.000000000000000000 ) ) ;
#146 = FACE_OUTER_BOUND ( 'NONE', #152, .T. ) ;
#147 = AXIS2_PLACEMENT_3D ( 'NONE', #173, #138, #61 ) ;
#148 = APPROVAL ( #84, 'NEURÈENÝ' ) ;
#149 = DIRECTION ( 'NONE',  ( 0.000000000000000000, 0.000000000000000000, 1.000000000000000000 ) ) ;
#150 = CARTESIAN_POINT ( 'NONE',  ( 0.000000000000000000, 0.000000000000000000, 7.000000000000000000 ) ) ;
#151 = APPROVAL_STATUS ( 'not_yet_approved' ) ;
#152 = EDGE_LOOP ( 'NONE', ( #177, #80, #180, #122 ) ) ;
#153 = EDGE_CURVE ( 'NONE', #42, #121, #17, .T. ) ;
#154 = ORIENTED_EDGE ( 'NONE', *, *, #46, .F. ) ;
#155 = ADVANCED_FACE ( 'NONE', ( #66 ), #176, .T. ) ;
#156 = CARTESIAN_POINT ( 'NONE',  ( -11.00000000000000000, 0.000000000000000000, 7.000000000000000000 ) ) ;
#157 = COORDINATED_UNIVERSAL_TIME_OFFSET ( 1, 0, .AHEAD. ) ;
#158 = DIRECTION ( 'NONE',  ( 0.000000000000000000, 0.000000000000000000, 1.000000000000000000 ) ) ;
#159 = EDGE_CURVE ( 'NONE', #104, #121, #223, .T. ) ;
#160 = AXIS2_PLACEMENT_3D ( 'NONE', #130, #91, #136 ) ;
#161 = SECURITY_CLASSIFICATION_LEVEL ( 'unclassified' ) ;
#162 = DIRECTION ( 'NONE',  ( 1.000000000000000000, 0.000000000000000000, 0.000000000000000000 ) ) ;
#163 = ORIENTED_EDGE ( 'NONE', *, *, #134, .T. ) ;
#164 = SHAPE_DEFINITION_REPRESENTATION ( #224, #222 ) ;
#165 = DIRECTION ( 'NONE',  ( 0.000000000000000000, 0.000000000000000000, 1.000000000000000000 ) ) ;
#166 = DIRECTION ( 'NONE',  ( 1.000000000000000000, 0.000000000000000000, 0.000000000000000000 ) ) ;
#167 = PERSON_AND_ORGANIZATION_ROLE ( 'classification_officer' ) ;
#168 = DIRECTION ( 'NONE',  ( 1.000000000000000000, 0.000000000000000000, -0.000000000000000000 ) ) ;
#169 = CC_DESIGN_PERSON_AND_ORGANIZATION_ASSIGNMENT ( #13, #231, ( #44 ) ) ;
#170 = DIRECTION ( 'NONE',  ( 1.000000000000000000, 0.000000000000000000, -0.000000000000000000 ) ) ;
#171 = DIRECTION ( 'NONE',  ( -0.000000000000000000, -0.000000000000000000, -1.000000000000000000 ) ) ;
#172 = CC_DESIGN_APPROVAL ( #24, ( #182 ) ) ;
#173 = CARTESIAN_POINT ( 'NONE',  ( 0.000000000000000000, 0.000000000000000000, 7.000000000000000000 ) ) ;
#174 = CC_DESIGN_PERSON_AND_ORGANIZATION_ASSIGNMENT ( #197, #69, ( #67 ) ) ;
#175 = EDGE_LOOP ( 'NONE', ( #71, #202, #137, #85 ) ) ;
#176 = CYLINDRICAL_SURFACE ( 'NONE', #147, 11.00000000000000000 ) ;
#177 = ORIENTED_EDGE ( 'NONE', *, *, #134, .F. ) ;
#178 = CC_DESIGN_DATE_AND_TIME_ASSIGNMENT ( #109, #194, ( #182 ) ) ;
#179 = ORIENTED_EDGE ( 'NONE', *, *, #3, .T. ) ;
#180 = ORIENTED_EDGE ( 'NONE', *, *, #159, .T. ) ;
#181 = CARTESIAN_POINT ( 'NONE',  ( 11.00000000000000000, 1.347111479062088405E-15, 7.000000000000000000 ) ) ;
#182 = SECURITY_CLASSIFICATION ( '', '', #161 ) ;
#183 = ORIENTED_EDGE ( 'NONE', *, *, #39, .T. ) ;
#184 = PERSON ( 'NEURÈENÝ', 'NEURÈENÝ', 'NEURÈENÝ', ('NEURÈENÝ'), ('NEURÈENÝ'), ('NEURÈENÝ') ) ;
#185 = APPLICATION_PROTOCOL_DEFINITION ( 'international standard', 'config_control_design', 1994, #50 ) ;
#186 = DIRECTION ( 'NONE',  ( 0.000000000000000000, 0.000000000000000000, 1.000000000000000000 ) ) ;
#187 = APPROVAL_ROLE ( '' ) ;
#188 = FACE_OUTER_BOUND ( 'NONE', #49, .T. ) ;
#189 = FACE_OUTER_BOUND ( 'NONE', #175, .T. ) ;
#190 = APPROVAL_PERSON_ORGANIZATION ( #236, #24, #239 ) ;
#191 = DIRECTION ( 'NONE',  ( 1.000000000000000000, 0.000000000000000000, 0.000000000000000000 ) ) ;
#192 = CARTESIAN_POINT ( 'NONE',  ( 0.000000000000000000, 0.000000000000000000, 800.0000000000000000 ) ) ;
#193 = CARTESIAN_POINT ( 'NONE',  ( 11.00000000000000000, 1.347111479062088405E-15, 0.000000000000000000 ) ) ;
#194 = DATE_TIME_ROLE ( 'classification_date' ) ;
#195 = FACE_OUTER_BOUND ( 'NONE', #240, .T. ) ;
#196 = AXIS2_PLACEMENT_3D ( 'NONE', #212, #15, #170 ) ;
#197 = PERSON_AND_ORGANIZATION ( #184, #12 ) ;
#198 = AXIS2_PLACEMENT_3D ( 'NONE', #150, #149, #191 ) ;
#199 = VERTEX_POINT ( 'NONE', #76 ) ;
#200 = EDGE_CURVE ( 'NONE', #8, #199, #72, .T. ) ;
#201 = LOCAL_TIME ( 11, 42, 43.00000000000000000, #41 ) ;
#202 = ORIENTED_EDGE ( 'NONE', *, *, #62, .F. ) ;
#203 = DIRECTION ( 'NONE',  ( -0.000000000000000000, -0.000000000000000000, -1.000000000000000000 ) ) ;
#204 = CARTESIAN_POINT ( 'NONE',  ( 0.000000000000000000, 0.000000000000000000, 800.0000000000000000 ) ) ;
#205 = PERSON_AND_ORGANIZATION ( #184, #12 ) ;
#206 = DIRECTION ( 'NONE',  ( 1.000000000000000000, 0.000000000000000000, 0.000000000000000000 ) ) ;
#207 = PERSON_AND_ORGANIZATION_ROLE ( 'design_supplier' ) ;
#208 = APPROVAL_STATUS ( 'not_yet_approved' ) ;
#209 = VERTEX_POINT ( 'NONE', #252 ) ;
#210 = DIRECTION ( 'NONE',  ( 1.000000000000000000, 0.000000000000000000, 0.000000000000000000 ) ) ;
#211 =( NAMED_UNIT ( * ) SI_UNIT ( $, .STERADIAN. ) SOLID_ANGLE_UNIT ( ) );
#212 = CARTESIAN_POINT ( 'NONE',  ( 0.000000000000000000, 0.000000000000000000, 0.000000000000000000 ) ) ;
#213 = CIRCLE ( 'NONE', #4, 11.00000000000000000 ) ;
#214 = AXIS2_PLACEMENT_3D ( 'NONE', #218, #165, #73 ) ;
#215 = DIRECTION ( 'NONE',  ( -0.000000000000000000, -0.000000000000000000, -1.000000000000000000 ) ) ;
#216 = CYLINDRICAL_SURFACE ( 'NONE', #51, 11.00000000000000000 ) ;
#217 = ADVANCED_FACE ( 'NONE', ( #89 ), #40, .T. ) ;
#218 = CARTESIAN_POINT ( 'NONE',  ( 0.000000000000000000, 0.000000000000000000, 800.0000000000000000 ) ) ;
#219 = DIRECTION ( 'NONE',  ( -1.000000000000000000, 0.000000000000000000, 0.000000000000000000 ) ) ;
#220 = CARTESIAN_POINT ( 'NONE',  ( 0.000000000000000000, 0.000000000000000000, 0.000000000000000000 ) ) ;
#221 = APPROVAL ( #208, 'NEURÈENÝ' ) ;
#222 = ADVANCED_BREP_SHAPE_REPRESENTATION ( 'b82c', ( #247, #234 ), #87 ) ;
#223 = CIRCLE ( 'NONE', #64, 11.00000000000000000 ) ;
#224 = PRODUCT_DEFINITION_SHAPE ( 'NONE', 'NONE',  #67 ) ;
#225 = ORIENTED_EDGE ( 'NONE', *, *, #55, .F. ) ;
#226 = ADVANCED_FACE ( 'NONE', ( #188 ), #132, .T. ) ;
#227 = FACE_BOUND ( 'NONE', #242, .T. ) ;
#228 = PERSON_AND_ORGANIZATION ( #184, #12 ) ;
#229 = ORIENTED_EDGE ( 'NONE', *, *, #46, .T. ) ;
#230 = CC_DESIGN_DATE_AND_TIME_ASSIGNMENT ( #126, #33, ( #67 ) ) ;
#231 = PERSON_AND_ORGANIZATION_ROLE ( 'creator' ) ;
#232 = DIRECTION ( 'NONE',  ( -1.000000000000000000, 0.000000000000000000, 0.000000000000000000 ) ) ;
#233 = PLANE ( 'NONE',  #18 ) ;
#234 = AXIS2_PLACEMENT_3D ( 'NONE', #220, #144, #210 ) ;
#235 = DIRECTION ( 'NONE',  ( -0.000000000000000000, -0.000000000000000000, -1.000000000000000000 ) ) ;
#236 = PERSON_AND_ORGANIZATION ( #184, #12 ) ;
#237 = DIRECTION ( 'NONE',  ( 0.000000000000000000, 0.000000000000000000, 1.000000000000000000 ) ) ;
#238 = DIRECTION ( 'NONE',  ( -0.000000000000000000, -0.000000000000000000, -1.000000000000000000 ) ) ;
#239 = APPROVAL_ROLE ( '' ) ;
#240 = EDGE_LOOP ( 'NONE', ( #244, #163 ) ) ;
#241 = DIRECTION ( 'NONE',  ( 1.000000000000000000, 0.000000000000000000, 0.000000000000000000 ) ) ;
#242 = EDGE_LOOP ( 'NONE', ( #79, #154 ) ) ;
#243 = CALENDAR_DATE ( 2023, 12, 2 ) ;
#244 = ORIENTED_EDGE ( 'NONE', *, *, #99, .T. ) ;
#245 = CC_DESIGN_SECURITY_CLASSIFICATION ( #182, ( #44 ) ) ;
#246 = APPLICATION_CONTEXT ( 'configuration controlled 3d designs of mechanical parts and assemblies' ) ;
#247 = MANIFOLD_SOLID_BREP ( 'Pøidat vysunutím3', #116 ) ;
#248 = CARTESIAN_POINT ( 'NONE',  ( 0.000000000000000000, 0.000000000000000000, 0.000000000000000000 ) ) ;
#249 = CARTESIAN_POINT ( 'NONE',  ( 0.000000000000000000, 0.000000000000000000, 7.000000000000000000 ) ) ;
#250 = COORDINATED_UNIVERSAL_TIME_OFFSET ( 1, 0, .AHEAD. ) ;
#251 = COORDINATED_UNIVERSAL_TIME_OFFSET ( 1, 0, .AHEAD. ) ;
#252 = CARTESIAN_POINT ( 'NONE',  ( 8.000000000000000000, 9.797174393178825657E-16, 7.000000000000000000 ) ) ;
#253 = DIRECTION ( 'NONE',  ( 0.000000000000000000, 0.000000000000000000, 1.000000000000000000 ) ) ;
#254 = CALENDAR_DATE ( 2023, 12, 2 ) ;
#255 = LOCAL_TIME ( 11, 42, 43.00000000000000000, #157 ) ;
ENDSEC;
END-ISO-10303-21;
