ISO-10303-21;
HEADER;
FILE_DESCRIPTION (( 'STEP AP203' ),
    '1' );
FILE_NAME ('f7d3.STEP',
    '2023-02-12T12:19:27',
    ( '' ),
    ( '' ),
    'SwSTEP 2.0',
    'SolidWorks 2019',
    '' );
FILE_SCHEMA (( 'CONFIG_CONTROL_DESIGN' ));
ENDSEC;

DATA;
#1 = DIRECTION ( 'NONE',  ( 0.000000000000000000, 0.000000000000000000, 1.000000000000000000 ) ) ;
#2 = EDGE_LOOP ( 'NONE', ( #73, #172, #75, #154 ) ) ;
#3 = MECHANICAL_CONTEXT ( 'NONE', #18, 'mechanical' ) ;
#4 = ORIENTED_EDGE ( 'NONE', *, *, #188, .T. ) ;
#5 = APPROVAL_STATUS ( 'not_yet_approved' ) ;
#6 = PERSON_AND_ORGANIZATION ( #22, #78 ) ;
#7 = PERSON_AND_ORGANIZATION_ROLE ( 'design_owner' ) ;
#8 = CARTESIAN_POINT ( 'NONE',  ( 0.000000000000000000, 0.000000000000000000, 5.000000000000000000 ) ) ;
#9 = CARTESIAN_POINT ( 'NONE',  ( 6.000000000000000888, 7.347880794884120722E-16, 5.000000000000000000 ) ) ;
#10 = AXIS2_PLACEMENT_3D ( 'NONE', #236, #255, #80 ) ;
#11 = EDGE_CURVE ( 'NONE', #238, #103, #253, .T. ) ;
#12 = EDGE_LOOP ( 'NONE', ( #144, #56, #127, #217 ) ) ;
#13 = PRODUCT_DEFINITION_SHAPE ( 'NONE', 'NONE',  #35 ) ;
#14 = ORIENTED_EDGE ( 'NONE', *, *, #241, .F. ) ;
#15 = ORIENTED_EDGE ( 'NONE', *, *, #59, .F. ) ;
#16 = APPLICATION_CONTEXT ( 'configuration controlled 3d designs of mechanical parts and assemblies' ) ;
#17 = PRODUCT ( 'f7d3', 'f7d3', '', ( #3 ) ) ;
#18 = APPLICATION_CONTEXT ( 'configuration controlled 3d designs of mechanical parts and assemblies' ) ;
#19 = LOCAL_TIME ( 13, 19, 27.00000000000000000, #105 ) ;
#20 = AXIS2_PLACEMENT_3D ( 'NONE', #26, #28, #150 ) ;
#21 = CARTESIAN_POINT ( 'NONE',  ( 0.000000000000000000, 0.000000000000000000, 5.000000000000000000 ) ) ;
#22 = PERSON ( 'NEURÈENÝ', 'NEURÈENÝ', 'NEURÈENÝ', ('NEURÈENÝ'), ('NEURÈENÝ'), ('NEURÈENÝ') ) ;
#23 = DIRECTION ( 'NONE',  ( -0.000000000000000000, -0.000000000000000000, -1.000000000000000000 ) ) ;
#24 = COORDINATED_UNIVERSAL_TIME_OFFSET ( 1, 0, .AHEAD. ) ;
#25 = MANIFOLD_SOLID_BREP ( 'Pøidat vysunutím3', #34 ) ;
#26 = CARTESIAN_POINT ( 'NONE',  ( 0.000000000000000000, 0.000000000000000000, 0.000000000000000000 ) ) ;
#27 = EDGE_LOOP ( 'NONE', ( #15, #229, #38, #184 ) ) ;
#28 = DIRECTION ( 'NONE',  ( 0.000000000000000000, 0.000000000000000000, 1.000000000000000000 ) ) ;
#29 = PERSON_AND_ORGANIZATION_ROLE ( 'creator' ) ;
#30 = CALENDAR_DATE ( 2023, 12, 2 ) ;
#31 = CYLINDRICAL_SURFACE ( 'NONE', #176, 6.000000000000000888 ) ;
#32 = EDGE_CURVE ( 'NONE', #103, #119, #165, .T. ) ;
#33 = DIRECTION ( 'NONE',  ( -0.000000000000000000, -0.000000000000000000, -1.000000000000000000 ) ) ;
#34 = CLOSED_SHELL ( 'NONE', ( #52, #175, #60, #97, #195, #213, #39 ) ) ;
#35 = PRODUCT_DEFINITION ( 'NEZNÁMÝ', '', #126, #178 ) ;
#36 = CIRCLE ( 'NONE', #148, 6.000000000000000888 ) ;
#37 = CYLINDRICAL_SURFACE ( 'NONE', #200, 6.000000000000000888 ) ;
#38 = ORIENTED_EDGE ( 'NONE', *, *, #122, .T. ) ;
#39 = ADVANCED_FACE ( 'NONE', ( #106 ), #220, .T. ) ;
#40 = SECURITY_CLASSIFICATION ( '', '', #168 ) ;
#41 = PLANE ( 'NONE',  #167 ) ;
#42 = DIRECTION ( 'NONE',  ( 0.000000000000000000, 0.000000000000000000, 1.000000000000000000 ) ) ;
#43 = CYLINDRICAL_SURFACE ( 'NONE', #10, 3.000000000000000444 ) ;
#44 = VERTEX_POINT ( 'NONE', #70 ) ;
#45 = DATE_AND_TIME ( #124, #234 ) ;
#46 = VERTEX_POINT ( 'NONE', #53 ) ;
#47 = CIRCLE ( 'NONE', #149, 6.000000000000000888 ) ;
#48 = PERSON_AND_ORGANIZATION_ROLE ( 'design_supplier' ) ;
#49 = DATE_AND_TIME ( #30, #215 ) ;
#50 = DIRECTION ( 'NONE',  ( 0.000000000000000000, 0.000000000000000000, 1.000000000000000000 ) ) ;
#51 = EDGE_CURVE ( 'NONE', #136, #46, #36, .T. ) ;
#52 = ADVANCED_FACE ( 'NONE', ( #207 ), #69, .T. ) ;
#53 = CARTESIAN_POINT ( 'NONE',  ( -6.000000000000000888, 0.000000000000000000, 5.000000000000000000 ) ) ;
#54 = CIRCLE ( 'NONE', #208, 6.000000000000000888 ) ;
#55 = CARTESIAN_POINT ( 'NONE',  ( 0.000000000000000000, 0.000000000000000000, 5.000000000000000000 ) ) ;
#56 = ORIENTED_EDGE ( 'NONE', *, *, #32, .T. ) ;
#57 = DIRECTION ( 'NONE',  ( -0.000000000000000000, -0.000000000000000000, -1.000000000000000000 ) ) ;
#58 = EDGE_LOOP ( 'NONE', ( #210, #14 ) ) ;
#59 = EDGE_CURVE ( 'NONE', #136, #123, #114, .T. ) ;
#60 = ADVANCED_FACE ( 'NONE', ( #131 ), #31, .T. ) ;
#61 = APPROVAL ( #101, 'NEURÈENÝ' ) ;
#62 = LINE ( 'NONE', #237, #98 ) ;
#63 = CARTESIAN_POINT ( 'NONE',  ( 0.000000000000000000, 0.000000000000000000, 5.000000000000000000 ) ) ;
#64 = CARTESIAN_POINT ( 'NONE',  ( 0.000000000000000000, 0.000000000000000000, 160.0000000000000000 ) ) ;
#65 = DIRECTION ( 'NONE',  ( 1.000000000000000000, 0.000000000000000000, 0.000000000000000000 ) ) ;
#66 = DIRECTION ( 'NONE',  ( 0.000000000000000000, 0.000000000000000000, 1.000000000000000000 ) ) ;
#67 = PERSON_AND_ORGANIZATION_ROLE ( 'creator' ) ;
#68 = CALENDAR_DATE ( 2023, 12, 2 ) ;
#69 = CYLINDRICAL_SURFACE ( 'NONE', #177, 3.000000000000000444 ) ;
#70 = CARTESIAN_POINT ( 'NONE',  ( -6.000000000000000888, 0.000000000000000000, 0.000000000000000000 ) ) ;
#71 = CC_DESIGN_PERSON_AND_ORGANIZATION_ASSIGNMENT ( #6, #29, ( #35 ) ) ;
#72 = FACE_OUTER_BOUND ( 'NONE', #2, .T. ) ;
#73 = ORIENTED_EDGE ( 'NONE', *, *, #51, .F. ) ;
#74 = DIRECTION ( 'NONE',  ( -0.000000000000000000, -0.000000000000000000, -1.000000000000000000 ) ) ;
#75 = ORIENTED_EDGE ( 'NONE', *, *, #76, .T. ) ;
#76 = EDGE_CURVE ( 'NONE', #123, #44, #47, .T. ) ;
#77 = AXIS2_PLACEMENT_3D ( 'NONE', #163, #66, #242 ) ;
#78 = ORGANIZATION ( 'NEURÈENÝ', 'NEURÈENÝ', '' ) ;
#79 = FACE_BOUND ( 'NONE', #58, .T. ) ;
#80 = DIRECTION ( 'NONE',  ( -1.000000000000000000, 0.000000000000000000, 0.000000000000000000 ) ) ;
#81 = DIRECTION ( 'NONE',  ( 1.000000000000000000, 0.000000000000000000, -0.000000000000000000 ) ) ;
#82 = DIRECTION ( 'NONE',  ( 0.000000000000000000, 0.000000000000000000, 1.000000000000000000 ) ) ;
#83 = PERSON_AND_ORGANIZATION ( #22, #78 ) ;
#84 = EDGE_CURVE ( 'NONE', #146, #119, #191, .T. ) ;
#85 = ORIENTED_EDGE ( 'NONE', *, *, #51, .T. ) ;
#86 = COORDINATED_UNIVERSAL_TIME_OFFSET ( 1, 0, .AHEAD. ) ;
#87 = CIRCLE ( 'NONE', #102, 6.000000000000000888 ) ;
#88 = PERSON_AND_ORGANIZATION ( #22, #78 ) ;
#89 = CARTESIAN_POINT ( 'NONE',  ( 0.000000000000000000, 0.000000000000000000, 160.0000000000000000 ) ) ;
#90 = ADVANCED_BREP_SHAPE_REPRESENTATION ( 'f7d3', ( #25, #20 ), #115 ) ;
#91 = VECTOR ( 'NONE', #57, 1000.000000000000000 ) ;
#92 = LOCAL_TIME ( 13, 19, 27.00000000000000000, #24 ) ;
#93 = ORIENTED_EDGE ( 'NONE', *, *, #11, .T. ) ;
#94 = UNCERTAINTY_MEASURE_WITH_UNIT (LENGTH_MEASURE( 1.000000000000000082E-05 ), #199, 'distance_accuracy_value', 'NONE');
#95 = CARTESIAN_POINT ( 'NONE',  ( 0.000000000000000000, 0.000000000000000000, 0.000000000000000000 ) ) ;
#96 = ORIENTED_EDGE ( 'NONE', *, *, #132, .T. ) ;
#97 = ADVANCED_FACE ( 'NONE', ( #79, #254 ), #41, .T. ) ;
#98 = VECTOR ( 'NONE', #23, 1000.000000000000000 ) ;
#99 = DIRECTION ( 'NONE',  ( 0.000000000000000000, 0.000000000000000000, 1.000000000000000000 ) ) ;
#100 = CARTESIAN_POINT ( 'NONE',  ( 6.000000000000000888, 7.347880794884120722E-16, 0.000000000000000000 ) ) ;
#101 = APPROVAL_STATUS ( 'not_yet_approved' ) ;
#102 = AXIS2_PLACEMENT_3D ( 'NONE', #21, #99, #140 ) ;
#103 = VERTEX_POINT ( 'NONE', #160 ) ;
#104 = EDGE_CURVE ( 'NONE', #44, #123, #54, .T. ) ;
#105 = COORDINATED_UNIVERSAL_TIME_OFFSET ( 1, 0, .AHEAD. ) ;
#106 = FACE_OUTER_BOUND ( 'NONE', #251, .T. ) ;
#107 = APPROVAL_DATE_TIME ( #221, #153 ) ;
#108 = CC_DESIGN_SECURITY_CLASSIFICATION ( #40, ( #126 ) ) ;
#109 = APPROVAL ( #5, 'NEURÈENÝ' ) ;
#110 = DATE_TIME_ROLE ( 'creation_date' ) ;
#111 = PERSON_AND_ORGANIZATION ( #22, #78 ) ;
#112 = DIRECTION ( 'NONE',  ( -0.000000000000000000, -0.000000000000000000, -1.000000000000000000 ) ) ;
#113 = DIRECTION ( 'NONE',  ( 0.000000000000000000, 0.000000000000000000, 1.000000000000000000 ) ) ;
#114 = LINE ( 'NONE', #9, #252 ) ;
#115 =( GEOMETRIC_REPRESENTATION_CONTEXT ( 3 ) GLOBAL_UNCERTAINTY_ASSIGNED_CONTEXT ( ( #94 ) ) GLOBAL_UNIT_ASSIGNED_CONTEXT ( ( #199, #250, #128 ) ) REPRESENTATION_CONTEXT ( 'NONE', 'WORKASPACE' ) );
#116 = APPROVAL_PERSON_ORGANIZATION ( #186, #109, #243 ) ;
#117 = DIRECTION ( 'NONE',  ( -1.000000000000000000, 0.000000000000000000, 0.000000000000000000 ) ) ;
#118 = EDGE_LOOP ( 'NONE', ( #96, #85 ) ) ;
#119 = VERTEX_POINT ( 'NONE', #235 ) ;
#120 = CC_DESIGN_DATE_AND_TIME_ASSIGNMENT ( #224, #130, ( #40 ) ) ;
#121 = DIRECTION ( 'NONE',  ( 0.000000000000000000, 0.000000000000000000, 1.000000000000000000 ) ) ;
#122 = EDGE_CURVE ( 'NONE', #46, #44, #62, .T. ) ;
#123 = VERTEX_POINT ( 'NONE', #100 ) ;
#124 = CALENDAR_DATE ( 2023, 12, 2 ) ;
#125 = CIRCLE ( 'NONE', #156, 3.000000000000000444 ) ;
#126 = PRODUCT_DEFINITION_FORMATION_WITH_SPECIFIED_SOURCE ( 'LIBOVOLNÝ', '', #17, .NOT_KNOWN. ) ;
#127 = ORIENTED_EDGE ( 'NONE', *, *, #241, .T. ) ;
#128 =( NAMED_UNIT ( * ) SI_UNIT ( $, .STERADIAN. ) SOLID_ANGLE_UNIT ( ) );
#129 = APPROVAL_ROLE ( '' ) ;
#130 = DATE_TIME_ROLE ( 'classification_date' ) ;
#131 = FACE_OUTER_BOUND ( 'NONE', #27, .T. ) ;
#132 = EDGE_CURVE ( 'NONE', #46, #136, #87, .T. ) ;
#133 = LINE ( 'NONE', #230, #91 ) ;
#134 = ORIENTED_EDGE ( 'NONE', *, *, #11, .F. ) ;
#135 = DIRECTION ( 'NONE',  ( 1.000000000000000000, 0.000000000000000000, -0.000000000000000000 ) ) ;
#136 = VERTEX_POINT ( 'NONE', #158 ) ;
#137 = SHAPE_DEFINITION_REPRESENTATION ( #13, #90 ) ;
#138 = CIRCLE ( 'NONE', #232, 3.000000000000000444 ) ;
#139 = CC_DESIGN_APPROVAL ( #109, ( #126 ) ) ;
#140 = DIRECTION ( 'NONE',  ( 1.000000000000000000, 0.000000000000000000, 0.000000000000000000 ) ) ;
#141 = DIRECTION ( 'NONE',  ( 1.000000000000000000, 0.000000000000000000, 0.000000000000000000 ) ) ;
#142 = FACE_OUTER_BOUND ( 'NONE', #231, .T. ) ;
#143 = EDGE_CURVE ( 'NONE', #103, #238, #138, .T. ) ;
#144 = ORIENTED_EDGE ( 'NONE', *, *, #143, .F. ) ;
#145 = APPROVAL_DATE_TIME ( #49, #109 ) ;
#146 = VERTEX_POINT ( 'NONE', #248 ) ;
#147 = CALENDAR_DATE ( 2023, 12, 2 ) ;
#148 = AXIS2_PLACEMENT_3D ( 'NONE', #169, #189, #225 ) ;
#149 = AXIS2_PLACEMENT_3D ( 'NONE', #247, #187, #170 ) ;
#150 = DIRECTION ( 'NONE',  ( 1.000000000000000000, 0.000000000000000000, 0.000000000000000000 ) ) ;
#151 = DIRECTION ( 'NONE',  ( -1.000000000000000000, 0.000000000000000000, 0.000000000000000000 ) ) ;
#152 = DIRECTION ( 'NONE',  ( -1.000000000000000000, 0.000000000000000000, 0.000000000000000000 ) ) ;
#153 = APPROVAL ( #239, 'NEURÈENÝ' ) ;
#154 = ORIENTED_EDGE ( 'NONE', *, *, #122, .F. ) ;
#155 = ORIENTED_EDGE ( 'NONE', *, *, #84, .T. ) ;
#156 = AXIS2_PLACEMENT_3D ( 'NONE', #63, #82, #65 ) ;
#157 = AXIS2_PLACEMENT_3D ( 'NONE', #246, #50, #141 ) ;
#158 = CARTESIAN_POINT ( 'NONE',  ( 6.000000000000000888, 7.347880794884120722E-16, 5.000000000000000000 ) ) ;
#159 = CARTESIAN_POINT ( 'NONE',  ( -3.000000000000000444, 0.000000000000000000, 160.0000000000000000 ) ) ;
#160 = CARTESIAN_POINT ( 'NONE',  ( 3.000000000000000444, 3.673940397442060361E-16, 160.0000000000000000 ) ) ;
#161 = APPLICATION_PROTOCOL_DEFINITION ( 'international standard', 'config_control_design', 1994, #16 ) ;
#162 = CC_DESIGN_DATE_AND_TIME_ASSIGNMENT ( #45, #110, ( #35 ) ) ;
#163 = CARTESIAN_POINT ( 'NONE',  ( 0.000000000000000000, 0.000000000000000000, 160.0000000000000000 ) ) ;
#164 = PERSON_AND_ORGANIZATION ( #22, #78 ) ;
#165 = LINE ( 'NONE', #203, #227 ) ;
#166 = COORDINATED_UNIVERSAL_TIME_OFFSET ( 1, 0, .AHEAD. ) ;
#167 = AXIS2_PLACEMENT_3D ( 'NONE', #197, #121, #81 ) ;
#168 = SECURITY_CLASSIFICATION_LEVEL ( 'unclassified' ) ;
#169 = CARTESIAN_POINT ( 'NONE',  ( 0.000000000000000000, 0.000000000000000000, 5.000000000000000000 ) ) ;
#170 = DIRECTION ( 'NONE',  ( 1.000000000000000000, 0.000000000000000000, 0.000000000000000000 ) ) ;
#171 = AXIS2_PLACEMENT_3D ( 'NONE', #95, #173, #135 ) ;
#172 = ORIENTED_EDGE ( 'NONE', *, *, #59, .T. ) ;
#173 = DIRECTION ( 'NONE',  ( 0.000000000000000000, 0.000000000000000000, 1.000000000000000000 ) ) ;
#174 = ORIENTED_EDGE ( 'NONE', *, *, #143, .T. ) ;
#175 = ADVANCED_FACE ( 'NONE', ( #72 ), #37, .T. ) ;
#176 = AXIS2_PLACEMENT_3D ( 'NONE', #8, #112, #151 ) ;
#177 = AXIS2_PLACEMENT_3D ( 'NONE', #89, #33, #152 ) ;
#178 = DESIGN_CONTEXT ( 'detailed design', #16, 'design' ) ;
#179 = CARTESIAN_POINT ( 'NONE',  ( 0.000000000000000000, 0.000000000000000000, 160.0000000000000000 ) ) ;
#180 = APPROVAL_ROLE ( '' ) ;
#181 = ORIENTED_EDGE ( 'NONE', *, *, #76, .F. ) ;
#182 = CALENDAR_DATE ( 2023, 12, 2 ) ;
#183 = LOCAL_TIME ( 13, 19, 27.00000000000000000, #201 ) ;
#184 = ORIENTED_EDGE ( 'NONE', *, *, #104, .T. ) ;
#185 = APPROVAL_PERSON_ORGANIZATION ( #111, #61, #180 ) ;
#186 = PERSON_AND_ORGANIZATION ( #22, #78 ) ;
#187 = DIRECTION ( 'NONE',  ( 0.000000000000000000, 0.000000000000000000, 1.000000000000000000 ) ) ;
#188 = EDGE_CURVE ( 'NONE', #238, #146, #133, .T. ) ;
#189 = DIRECTION ( 'NONE',  ( 0.000000000000000000, 0.000000000000000000, 1.000000000000000000 ) ) ;
#190 = PRODUCT_RELATED_PRODUCT_CATEGORY ( 'detail', '', ( #17 ) ) ;
#191 = CIRCLE ( 'NONE', #157, 3.000000000000000444 ) ;
#192 = FACE_OUTER_BOUND ( 'NONE', #211, .T. ) ;
#193 = ORIENTED_EDGE ( 'NONE', *, *, #104, .F. ) ;
#194 = DATE_AND_TIME ( #182, #183 ) ;
#195 = ADVANCED_FACE ( 'NONE', ( #192 ), #209, .F. ) ;
#196 = CC_DESIGN_PERSON_AND_ORGANIZATION_ASSIGNMENT ( #88, #48, ( #126 ) ) ;
#197 = CARTESIAN_POINT ( 'NONE',  ( 0.000000000000000000, 0.000000000000000000, 5.000000000000000000 ) ) ;
#198 = DIRECTION ( 'NONE',  ( 1.000000000000000000, 0.000000000000000000, 0.000000000000000000 ) ) ;
#199 =( LENGTH_UNIT ( ) NAMED_UNIT ( * ) SI_UNIT ( .MILLI., .METRE. ) );
#200 = AXIS2_PLACEMENT_3D ( 'NONE', #55, #74, #117 ) ;
#201 = COORDINATED_UNIVERSAL_TIME_OFFSET ( 1, 0, .AHEAD. ) ;
#202 = APPROVAL_PERSON_ORGANIZATION ( #164, #153, #129 ) ;
#203 = CARTESIAN_POINT ( 'NONE',  ( 3.000000000000000444, 3.673940397442060361E-16, 160.0000000000000000 ) ) ;
#204 = PERSON_AND_ORGANIZATION ( #22, #78 ) ;
#205 = DIRECTION ( 'NONE',  ( -0.000000000000000000, -0.000000000000000000, -1.000000000000000000 ) ) ;
#206 = CC_DESIGN_PERSON_AND_ORGANIZATION_ASSIGNMENT ( #204, #218, ( #40 ) ) ;
#207 = FACE_OUTER_BOUND ( 'NONE', #12, .T. ) ;
#208 = AXIS2_PLACEMENT_3D ( 'NONE', #216, #42, #198 ) ;
#209 = PLANE ( 'NONE',  #171 ) ;
#210 = ORIENTED_EDGE ( 'NONE', *, *, #84, .F. ) ;
#211 = EDGE_LOOP ( 'NONE', ( #193, #181 ) ) ;
#212 = APPROVAL_DATE_TIME ( #194, #61 ) ;
#213 = ADVANCED_FACE ( 'NONE', ( #142 ), #43, .T. ) ;
#214 = CC_DESIGN_PERSON_AND_ORGANIZATION_ASSIGNMENT ( #245, #67, ( #126 ) ) ;
#215 = LOCAL_TIME ( 13, 19, 27.00000000000000000, #166 ) ;
#216 = CARTESIAN_POINT ( 'NONE',  ( 0.000000000000000000, 0.000000000000000000, 0.000000000000000000 ) ) ;
#217 = ORIENTED_EDGE ( 'NONE', *, *, #188, .F. ) ;
#218 = PERSON_AND_ORGANIZATION_ROLE ( 'classification_officer' ) ;
#219 = AXIS2_PLACEMENT_3D ( 'NONE', #64, #113, #226 ) ;
#220 = PLANE ( 'NONE',  #219 ) ;
#221 = DATE_AND_TIME ( #147, #92 ) ;
#222 = CC_DESIGN_APPROVAL ( #153, ( #35 ) ) ;
#223 = APPLICATION_PROTOCOL_DEFINITION ( 'international standard', 'config_control_design', 1994, #18 ) ;
#224 = DATE_AND_TIME ( #68, #19 ) ;
#225 = DIRECTION ( 'NONE',  ( 1.000000000000000000, 0.000000000000000000, 0.000000000000000000 ) ) ;
#226 = DIRECTION ( 'NONE',  ( 1.000000000000000000, 0.000000000000000000, -0.000000000000000000 ) ) ;
#227 = VECTOR ( 'NONE', #244, 1000.000000000000000 ) ;
#228 = DIRECTION ( 'NONE',  ( 1.000000000000000000, 0.000000000000000000, 0.000000000000000000 ) ) ;
#229 = ORIENTED_EDGE ( 'NONE', *, *, #132, .F. ) ;
#230 = CARTESIAN_POINT ( 'NONE',  ( -3.000000000000000444, 0.000000000000000000, 160.0000000000000000 ) ) ;
#231 = EDGE_LOOP ( 'NONE', ( #249, #134, #4, #155 ) ) ;
#232 = AXIS2_PLACEMENT_3D ( 'NONE', #179, #1, #228 ) ;
#233 = CC_DESIGN_PERSON_AND_ORGANIZATION_ASSIGNMENT ( #83, #7, ( #17 ) ) ;
#234 = LOCAL_TIME ( 13, 19, 27.00000000000000000, #86 ) ;
#235 = CARTESIAN_POINT ( 'NONE',  ( 3.000000000000000444, 3.673940397442060361E-16, 5.000000000000000000 ) ) ;
#236 = CARTESIAN_POINT ( 'NONE',  ( 0.000000000000000000, 0.000000000000000000, 160.0000000000000000 ) ) ;
#237 = CARTESIAN_POINT ( 'NONE',  ( -6.000000000000000888, 0.000000000000000000, 5.000000000000000000 ) ) ;
#238 = VERTEX_POINT ( 'NONE', #159 ) ;
#239 = APPROVAL_STATUS ( 'not_yet_approved' ) ;
#240 = CC_DESIGN_APPROVAL ( #61, ( #40 ) ) ;
#241 = EDGE_CURVE ( 'NONE', #119, #146, #125, .T. ) ;
#242 = DIRECTION ( 'NONE',  ( 1.000000000000000000, 0.000000000000000000, 0.000000000000000000 ) ) ;
#243 = APPROVAL_ROLE ( '' ) ;
#244 = DIRECTION ( 'NONE',  ( -0.000000000000000000, -0.000000000000000000, -1.000000000000000000 ) ) ;
#245 = PERSON_AND_ORGANIZATION ( #22, #78 ) ;
#246 = CARTESIAN_POINT ( 'NONE',  ( 0.000000000000000000, 0.000000000000000000, 5.000000000000000000 ) ) ;
#247 = CARTESIAN_POINT ( 'NONE',  ( 0.000000000000000000, 0.000000000000000000, 0.000000000000000000 ) ) ;
#248 = CARTESIAN_POINT ( 'NONE',  ( -3.000000000000000444, 0.000000000000000000, 5.000000000000000000 ) ) ;
#249 = ORIENTED_EDGE ( 'NONE', *, *, #32, .F. ) ;
#250 =( NAMED_UNIT ( * ) PLANE_ANGLE_UNIT ( ) SI_UNIT ( $, .RADIAN. ) );
#251 = EDGE_LOOP ( 'NONE', ( #93, #174 ) ) ;
#252 = VECTOR ( 'NONE', #205, 1000.000000000000000 ) ;
#253 = CIRCLE ( 'NONE', #77, 3.000000000000000444 ) ;
#254 = FACE_OUTER_BOUND ( 'NONE', #118, .T. ) ;
#255 = DIRECTION ( 'NONE',  ( -0.000000000000000000, -0.000000000000000000, -1.000000000000000000 ) ) ;
ENDSEC;
END-ISO-10303-21;
