ISO-10303-21;
HEADER;
FILE_DESCRIPTION (( 'STEP AP203' ),
    '1' );
FILE_NAME ('6721.STEP',
    '2022-07-07T10:33:26',
    ( '' ),
    ( '' ),
    'SwSTEP 2.0',
    'SolidWorks 2019',
    '' );
FILE_SCHEMA (( 'CONFIG_CONTROL_DESIGN' ));
ENDSEC;

DATA;
#1 = PLANE ( 'NONE',  #66 ) ;
#2 = CIRCLE ( 'NONE', #32, 1.250000000000000000 ) ;
#3 = CIRCLE ( 'NONE', #96, 2.500000000000000000 ) ;
#4 = EDGE_LOOP ( 'NONE', ( #173, #139 ) ) ;
#5 = ORIENTED_EDGE ( 'NONE', *, *, #59, .F. ) ;
#6 = FACE_BOUND ( 'NONE', #4, .T. ) ;
#7 =( LENGTH_UNIT ( ) NAMED_UNIT ( * ) SI_UNIT ( .MILLI., .METRE. ) );
#8 = EDGE_CURVE ( 'NONE', #307, #46, #262, .T. ) ;
#9 = DIRECTION ( 'NONE',  ( -1.000000000000000000, 0.000000000000000000, 0.000000000000000000 ) ) ;
#10 = DIRECTION ( 'NONE',  ( 0.000000000000000000, 0.000000000000000000, 1.000000000000000000 ) ) ;
#11 = CYLINDRICAL_SURFACE ( 'NONE', #280, 1.250000000000000000 ) ;
#12 = APPROVAL_PERSON_ORGANIZATION ( #41, #51, #63 ) ;
#13 = FACE_OUTER_BOUND ( 'NONE', #42, .T. ) ;
#14 = MECHANICAL_CONTEXT ( 'NONE', #182, 'mechanical' ) ;
#15 = PERSON_AND_ORGANIZATION ( #99, #43 ) ;
#16 = ORIENTED_EDGE ( 'NONE', *, *, #199, .T. ) ;
#17 = AXIS2_PLACEMENT_3D ( 'NONE', #263, #57, #266 ) ;
#18 = EDGE_CURVE ( 'NONE', #95, #274, #164, .T. ) ;
#19 = APPROVAL_DATE_TIME ( #226, #221 ) ;
#20 = PRODUCT_DEFINITION_SHAPE ( 'NONE', 'NONE',  #157 ) ;
#21 = ORIENTED_EDGE ( 'NONE', *, *, #285, .F. ) ;
#22 = PERSON_AND_ORGANIZATION ( #99, #43 ) ;
#23 = VERTEX_POINT ( 'NONE', #53 ) ;
#24 = DATE_AND_TIME ( #302, #200 ) ;
#25 = VERTEX_POINT ( 'NONE', #27 ) ;
#26 = CARTESIAN_POINT ( 'NONE',  ( 0.000000000000000000, 0.000000000000000000, 2.000000000000000000 ) ) ;
#27 = CARTESIAN_POINT ( 'NONE',  ( -2.500000000000000000, 0.000000000000000000, 2.000000000000000000 ) ) ;
#28 = CARTESIAN_POINT ( 'NONE',  ( 0.000000000000000000, 0.000000000000000000, 2.199999999999993516 ) ) ;
#29 = ORIENTED_EDGE ( 'NONE', *, *, #31, .T. ) ;
#30 = CARTESIAN_POINT ( 'NONE',  ( 0.000000000000000000, 0.000000000000000000, 0.000000000000000000 ) ) ;
#31 = EDGE_CURVE ( 'NONE', #163, #197, #214, .T. ) ;
#32 = AXIS2_PLACEMENT_3D ( 'NONE', #28, #119, #260 ) ;
#33 = CARTESIAN_POINT ( 'NONE',  ( 0.000000000000000000, 0.000000000000000000, 127.0000000000000000 ) ) ;
#34 = SECURITY_CLASSIFICATION ( '', '', #275 ) ;
#35 = CARTESIAN_POINT ( 'NONE',  ( -2.500000000000000000, 0.000000000000000000, 0.000000000000000000 ) ) ;
#36 = DIRECTION ( 'NONE',  ( -0.000000000000000000, -0.000000000000000000, -1.000000000000000000 ) ) ;
#37 = FACE_OUTER_BOUND ( 'NONE', #49, .T. ) ;
#38 = AXIS2_PLACEMENT_3D ( 'NONE', #171, #36, #9 ) ;
#39 = CALENDAR_DATE ( 2022, 7, 7 ) ;
#40 = ORIENTED_EDGE ( 'NONE', *, *, #74, .F. ) ;
#41 = PERSON_AND_ORGANIZATION ( #99, #43 ) ;
#42 = EDGE_LOOP ( 'NONE', ( #89, #47, #256, #97 ) ) ;
#43 = ORGANIZATION ( 'NEURÈENÝ', 'NEURÈENÝ', '' ) ;
#44 = APPROVAL_STATUS ( 'not_yet_approved' ) ;
#45 = COORDINATED_UNIVERSAL_TIME_OFFSET ( 1, 0, .AHEAD. ) ;
#46 = VERTEX_POINT ( 'NONE', #282 ) ;
#47 = ORIENTED_EDGE ( 'NONE', *, *, #116, .F. ) ;
#48 = ORIENTED_EDGE ( 'NONE', *, *, #146, .F. ) ;
#49 = EDGE_LOOP ( 'NONE', ( #277, #211, #300, #202 ) ) ;
#50 = EDGE_LOOP ( 'NONE', ( #110, #117 ) ) ;
#51 = APPROVAL ( #44, 'NEURÈENÝ' ) ;
#52 = CARTESIAN_POINT ( 'NONE',  ( 0.000000000000000000, 0.000000000000000000, 2.199999999999993516 ) ) ;
#53 = CARTESIAN_POINT ( 'NONE',  ( 1.450000000000000178, 0.000000000000000000, 1.999999999999996669 ) ) ;
#54 = AXIS2_PLACEMENT_3D ( 'NONE', #243, #81, #152 ) ;
#55 = DIRECTION ( 'NONE',  ( 1.000000000000000000, 0.000000000000000000, -0.000000000000000000 ) ) ;
#56 = CIRCLE ( 'NONE', #287, 2.500000000000000000 ) ;
#57 = DIRECTION ( 'NONE',  ( 0.000000000000000000, 0.000000000000000000, 1.000000000000000000 ) ) ;
#58 = DIRECTION ( 'NONE',  ( 1.000000000000000000, 0.000000000000000000, 0.000000000000000000 ) ) ;
#59 = EDGE_CURVE ( 'NONE', #23, #197, #286, .T. ) ;
#60 = DIRECTION ( 'NONE',  ( 0.000000000000000000, 0.000000000000000000, 1.000000000000000000 ) ) ;
#61 = CC_DESIGN_PERSON_AND_ORGANIZATION_ASSIGNMENT ( #15, #248, ( #157 ) ) ;
#62 = DIRECTION ( 'NONE',  ( 0.000000000000000000, 0.000000000000000000, 1.000000000000000000 ) ) ;
#63 = APPROVAL_ROLE ( '' ) ;
#64 = VECTOR ( 'NONE', #279, 1000.000000000000000 ) ;
#65 = DATE_AND_TIME ( #273, #73 ) ;
#66 = AXIS2_PLACEMENT_3D ( 'NONE', #207, #115, #206 ) ;
#67 = CALENDAR_DATE ( 2022, 7, 7 ) ;
#68 = PERSON_AND_ORGANIZATION ( #99, #43 ) ;
#69 = ADVANCED_FACE ( 'NONE', ( #165 ), #77, .T. ) ;
#70 = CIRCLE ( 'NONE', #54, 0.2000000000000000944 ) ;
#71 = PRODUCT_RELATED_PRODUCT_CATEGORY ( 'detail', '', ( #153 ) ) ;
#72 = ORIENTED_EDGE ( 'NONE', *, *, #18, .T. ) ;
#73 = LOCAL_TIME ( 12, 33, 26.00000000000000000, #45 ) ;
#74 = EDGE_CURVE ( 'NONE', #251, #163, #166, .T. ) ;
#75 = CARTESIAN_POINT ( 'NONE',  ( 2.500000000000000000, 3.061616997868383141E-16, 2.000000000000000000 ) ) ;
#76 = DIRECTION ( 'NONE',  ( 1.000000000000000000, 0.000000000000000000, 0.000000000000000000 ) ) ;
#77 = CYLINDRICAL_SURFACE ( 'NONE', #162, 1.250000000000000000 ) ;
#78 = DIRECTION ( 'NONE',  ( 1.000000000000000000, 0.000000000000000000, -0.000000000000000000 ) ) ;
#79 = APPLICATION_CONTEXT ( 'configuration controlled 3d designs of mechanical parts and assemblies' ) ;
#80 = CARTESIAN_POINT ( 'NONE',  ( 2.500000000000000000, 3.061616997868383141E-16, 2.000000000000000000 ) ) ;
#81 = DIRECTION ( 'NONE',  ( 0.000000000000000000, -1.000000000000000000, 0.000000000000000000 ) ) ;
#82 = AXIS2_PLACEMENT_3D ( 'NONE', #26, #288, #78 ) ;
#83 = DIRECTION ( 'NONE',  ( 0.000000000000000000, 0.000000000000000000, 1.000000000000000000 ) ) ;
#84 = DIRECTION ( 'NONE',  ( 1.000000000000000000, 0.000000000000000000, 0.000000000000000000 ) ) ;
#85 = PERSON_AND_ORGANIZATION_ROLE ( 'classification_officer' ) ;
#86 =( GEOMETRIC_REPRESENTATION_CONTEXT ( 3 ) GLOBAL_UNCERTAINTY_ASSIGNED_CONTEXT ( ( #159 ) ) GLOBAL_UNIT_ASSIGNED_CONTEXT ( ( #7, #145, #299 ) ) REPRESENTATION_CONTEXT ( 'NONE', 'WORKASPACE' ) );
#87 = ORIENTED_EDGE ( 'NONE', *, *, #261, .T. ) ;
#88 = APPROVAL_DATE_TIME ( #24, #51 ) ;
#89 = ORIENTED_EDGE ( 'NONE', *, *, #31, .F. ) ;
#90 = DATE_AND_TIME ( #39, #225 ) ;
#91 = APPROVAL_STATUS ( 'not_yet_approved' ) ;
#92 = CIRCLE ( 'NONE', #204, 1.250000000000000000 ) ;
#93 = ORIENTED_EDGE ( 'NONE', *, *, #290, .F. ) ;
#94 = LINE ( 'NONE', #183, #64 ) ;
#95 = VERTEX_POINT ( 'NONE', #144 ) ;
#96 = AXIS2_PLACEMENT_3D ( 'NONE', #30, #10, #121 ) ;
#97 = ORIENTED_EDGE ( 'NONE', *, *, #250, .F. ) ;
#98 = ORIENTED_EDGE ( 'NONE', *, *, #261, .F. ) ;
#99 = PERSON ( 'NEURÈENÝ', 'NEURÈENÝ', 'NEURÈENÝ', ('NEURÈENÝ'), ('NEURÈENÝ'), ('NEURÈENÝ') ) ;
#100 = FACE_OUTER_BOUND ( 'NONE', #50, .T. ) ;
#101 = DIRECTION ( 'NONE',  ( -1.000000000000000000, 0.000000000000000000, 0.000000000000000000 ) ) ;
#102 = FACE_OUTER_BOUND ( 'NONE', #232, .T. ) ;
#103 = APPROVAL ( #175, 'NEURÈENÝ' ) ;
#104 = CYLINDRICAL_SURFACE ( 'NONE', #38, 2.500000000000000000 ) ;
#105 = CARTESIAN_POINT ( 'NONE',  ( 0.000000000000000000, 0.000000000000000000, 2.000000000000000000 ) ) ;
#106 = DIRECTION ( 'NONE',  ( 1.000000000000000000, 0.000000000000000000, 0.000000000000000000 ) ) ;
#107 = COORDINATED_UNIVERSAL_TIME_OFFSET ( 1, 0, .AHEAD. ) ;
#108 = DATE_TIME_ROLE ( 'creation_date' ) ;
#109 = CIRCLE ( 'NONE', #216, 2.500000000000000000 ) ;
#110 = ORIENTED_EDGE ( 'NONE', *, *, #278, .T. ) ;
#111 = APPLICATION_PROTOCOL_DEFINITION ( 'international standard', 'config_control_design', 1994, #79 ) ;
#112 = DATE_TIME_ROLE ( 'classification_date' ) ;
#113 = AXIS2_PLACEMENT_3D ( 'NONE', #195, #60, #58 ) ;
#114 = CC_DESIGN_APPROVAL ( #221, ( #34 ) ) ;
#115 = DIRECTION ( 'NONE',  ( 0.000000000000000000, 0.000000000000000000, 1.000000000000000000 ) ) ;
#116 = EDGE_CURVE ( 'NONE', #274, #163, #2, .T. ) ;
#117 = ORIENTED_EDGE ( 'NONE', *, *, #215, .T. ) ;
#118 = DIRECTION ( 'NONE',  ( 1.224646799147353207E-16, 1.000000000000000000, -0.000000000000000000 ) ) ;
#119 = DIRECTION ( 'NONE',  ( 0.000000000000000000, 0.000000000000000000, 1.000000000000000000 ) ) ;
#120 = CC_DESIGN_PERSON_AND_ORGANIZATION_ASSIGNMENT ( #22, #303, ( #180 ) ) ;
#121 = DIRECTION ( 'NONE',  ( 1.000000000000000000, 0.000000000000000000, 0.000000000000000000 ) ) ;
#122 = CLOSED_SHELL ( 'NONE', ( #125, #255, #265, #194, #130, #136, #69, #234, #270 ) ) ;
#123 = CIRCLE ( 'NONE', #172, 1.250000000000000000 ) ;
#124 = DIRECTION ( 'NONE',  ( -0.000000000000000000, -0.000000000000000000, -1.000000000000000000 ) ) ;
#125 = ADVANCED_FACE ( 'NONE', ( #140 ), #198, .F. ) ;
#126 = DIRECTION ( 'NONE',  ( 1.000000000000000000, 0.000000000000000000, 0.000000000000000000 ) ) ;
#127 = CARTESIAN_POINT ( 'NONE',  ( -1.250000000000000000, 0.000000000000000000, 127.0000000000000000 ) ) ;
#128 = AXIS2_PLACEMENT_3D ( 'NONE', #191, #124, #268 ) ;
#129 = CARTESIAN_POINT ( 'NONE',  ( 0.000000000000000000, 0.000000000000000000, 127.0000000000000000 ) ) ;
#130 = ADVANCED_FACE ( 'NONE', ( #6, #100 ), #187, .T. ) ;
#131 = CARTESIAN_POINT ( 'NONE',  ( 0.000000000000000000, 0.000000000000000000, 0.000000000000000000 ) ) ;
#132 = CC_DESIGN_PERSON_AND_ORGANIZATION_ASSIGNMENT ( #68, #85, ( #34 ) ) ;
#133 = VECTOR ( 'NONE', #257, 1000.000000000000000 ) ;
#134 = APPROVAL_ROLE ( '' ) ;
#135 = EDGE_LOOP ( 'NONE', ( #87, #16 ) ) ;
#136 = ADVANCED_FACE ( 'NONE', ( #167 ), #1, .F. ) ;
#137 = APPLICATION_PROTOCOL_DEFINITION ( 'international standard', 'config_control_design', 1994, #182 ) ;
#138 = ORIENTED_EDGE ( 'NONE', *, *, #74, .T. ) ;
#139 = ORIENTED_EDGE ( 'NONE', *, *, #250, .T. ) ;
#140 = FACE_OUTER_BOUND ( 'NONE', #272, .T. ) ;
#141 = DIRECTION ( 'NONE',  ( -1.000000000000000000, 1.224646799147353207E-16, 0.000000000000000000 ) ) ;
#142 = CARTESIAN_POINT ( 'NONE',  ( 0.000000000000000000, 0.000000000000000000, 2.000000000000000000 ) ) ;
#143 = DIRECTION ( 'NONE',  ( 0.000000000000000000, 0.000000000000000000, 1.000000000000000000 ) ) ;
#144 = CARTESIAN_POINT ( 'NONE',  ( 1.250000000000000000, 1.530808498934191571E-16, 127.0000000000000000 ) ) ;
#145 =( NAMED_UNIT ( * ) PLANE_ANGLE_UNIT ( ) SI_UNIT ( $, .RADIAN. ) );
#146 = EDGE_CURVE ( 'NONE', #25, #252, #94, .T. ) ;
#147 = TOROIDAL_SURFACE ( 'NONE', #17, 1.450000000000000178, 0.2000000000000000111 ) ;
#148 = DIRECTION ( 'NONE',  ( 0.000000000000000000, 0.000000000000000000, 1.000000000000000000 ) ) ;
#149 = DIRECTION ( 'NONE',  ( 1.000000000000000000, 0.000000000000000000, 0.000000000000000000 ) ) ;
#150 = DIRECTION ( 'NONE',  ( 0.000000000000000000, 0.000000000000000000, 1.000000000000000000 ) ) ;
#151 = AXIS2_PLACEMENT_3D ( 'NONE', #131, #154, #246 ) ;
#152 = DIRECTION ( 'NONE',  ( 0.000000000000000000, 0.000000000000000000, -1.000000000000000000 ) ) ;
#153 = PRODUCT ( '6721', '6721', '', ( #14 ) ) ;
#154 = DIRECTION ( 'NONE',  ( 0.000000000000000000, 0.000000000000000000, 1.000000000000000000 ) ) ;
#155 = ORIENTED_EDGE ( 'NONE', *, *, #174, .F. ) ;
#156 = ADVANCED_BREP_SHAPE_REPRESENTATION ( '6721', ( #284, #151 ), #86 ) ;
#157 = PRODUCT_DEFINITION ( 'NEZNÁMÝ', '', #180, #177 ) ;
#158 = EDGE_LOOP ( 'NONE', ( #93, #305 ) ) ;
#159 = UNCERTAINTY_MEASURE_WITH_UNIT (LENGTH_MEASURE( 1.000000000000000082E-05 ), #7, 'distance_accuracy_value', 'NONE');
#160 = PERSON_AND_ORGANIZATION_ROLE ( 'design_owner' ) ;
#161 = ORIENTED_EDGE ( 'NONE', *, *, #215, .F. ) ;
#162 = AXIS2_PLACEMENT_3D ( 'NONE', #281, #212, #233 ) ;
#163 = VERTEX_POINT ( 'NONE', #219 ) ;
#164 = LINE ( 'NONE', #235, #133 ) ;
#165 = FACE_OUTER_BOUND ( 'NONE', #227, .T. ) ;
#166 = LINE ( 'NONE', #238, #298 ) ;
#167 = FACE_OUTER_BOUND ( 'NONE', #158, .T. ) ;
#168 = DIRECTION ( 'NONE',  ( -1.000000000000000000, 0.000000000000000000, 0.000000000000000000 ) ) ;
#169 = DIRECTION ( 'NONE',  ( 1.000000000000000000, 0.000000000000000000, 0.000000000000000000 ) ) ;
#170 = CARTESIAN_POINT ( 'NONE',  ( 0.000000000000000000, 0.000000000000000000, 2.000000000000000000 ) ) ;
#171 = CARTESIAN_POINT ( 'NONE',  ( 0.000000000000000000, 0.000000000000000000, 2.000000000000000000 ) ) ;
#172 = AXIS2_PLACEMENT_3D ( 'NONE', #193, #220, #84 ) ;
#173 = ORIENTED_EDGE ( 'NONE', *, *, #59, .T. ) ;
#174 = EDGE_CURVE ( 'NONE', #274, #23, #70, .T. ) ;
#175 = APPROVAL_STATUS ( 'not_yet_approved' ) ;
#176 = ORIENTED_EDGE ( 'NONE', *, *, #199, .F. ) ;
#177 = DESIGN_CONTEXT ( 'detailed design', #79, 'design' ) ;
#178 = PERSON_AND_ORGANIZATION ( #99, #43 ) ;
#179 = COORDINATED_UNIVERSAL_TIME_OFFSET ( 1, 0, .AHEAD. ) ;
#180 = PRODUCT_DEFINITION_FORMATION_WITH_SPECIFIED_SOURCE ( 'LIBOVOLNÝ', '', #153, .NOT_KNOWN. ) ;
#181 = ORIENTED_EDGE ( 'NONE', *, *, #285, .T. ) ;
#182 = APPLICATION_CONTEXT ( 'configuration controlled 3d designs of mechanical parts and assemblies' ) ;
#183 = CARTESIAN_POINT ( 'NONE',  ( -2.500000000000000000, 0.000000000000000000, 2.000000000000000000 ) ) ;
#184 = DIRECTION ( 'NONE',  ( -0.000000000000000000, -0.000000000000000000, -1.000000000000000000 ) ) ;
#185 = CARTESIAN_POINT ( 'NONE',  ( -1.450000000000000178, 1.775737858763662163E-16, 2.199999999999993516 ) ) ;
#186 = ORIENTED_EDGE ( 'NONE', *, *, #116, .T. ) ;
#187 = PLANE ( 'NONE',  #82 ) ;
#188 = FACE_OUTER_BOUND ( 'NONE', #247, .T. ) ;
#189 = CC_DESIGN_DATE_AND_TIME_ASSIGNMENT ( #65, #112, ( #34 ) ) ;
#190 = DIRECTION ( 'NONE',  ( -0.000000000000000000, -0.000000000000000000, -1.000000000000000000 ) ) ;
#191 = CARTESIAN_POINT ( 'NONE',  ( 0.000000000000000000, 0.000000000000000000, 2.000000000000000000 ) ) ;
#192 = CC_DESIGN_APPROVAL ( #103, ( #157 ) ) ;
#193 = CARTESIAN_POINT ( 'NONE',  ( 0.000000000000000000, 0.000000000000000000, 127.0000000000000000 ) ) ;
#194 = ADVANCED_FACE ( 'NONE', ( #37 ), #104, .T. ) ;
#195 = CARTESIAN_POINT ( 'NONE',  ( 0.000000000000000000, 0.000000000000000000, 2.199999999999993516 ) ) ;
#196 = DATE_AND_TIME ( #67, #301 ) ;
#197 = VERTEX_POINT ( 'NONE', #295 ) ;
#198 = TOROIDAL_SURFACE ( 'NONE', #209, 1.450000000000000178, 0.2000000000000000111 ) ;
#199 = EDGE_CURVE ( 'NONE', #95, #251, #92, .T. ) ;
#200 = LOCAL_TIME ( 12, 33, 26.00000000000000000, #228 ) ;
#201 = PERSON_AND_ORGANIZATION ( #99, #43 ) ;
#202 = ORIENTED_EDGE ( 'NONE', *, *, #290, .T. ) ;
#203 = PERSON_AND_ORGANIZATION_ROLE ( 'design_supplier' ) ;
#204 = AXIS2_PLACEMENT_3D ( 'NONE', #129, #150, #149 ) ;
#205 = APPROVAL_ROLE ( '' ) ;
#206 = DIRECTION ( 'NONE',  ( 1.000000000000000000, 0.000000000000000000, -0.000000000000000000 ) ) ;
#207 = CARTESIAN_POINT ( 'NONE',  ( 0.000000000000000000, 0.000000000000000000, 0.000000000000000000 ) ) ;
#208 = CC_DESIGN_PERSON_AND_ORGANIZATION_ASSIGNMENT ( #229, #160, ( #153 ) ) ;
#209 = AXIS2_PLACEMENT_3D ( 'NONE', #52, #143, #213 ) ;
#210 = AXIS2_PLACEMENT_3D ( 'NONE', #170, #190, #168 ) ;
#211 = ORIENTED_EDGE ( 'NONE', *, *, #278, .F. ) ;
#212 = DIRECTION ( 'NONE',  ( -0.000000000000000000, -0.000000000000000000, -1.000000000000000000 ) ) ;
#213 = DIRECTION ( 'NONE',  ( 1.000000000000000000, 0.000000000000000000, 0.000000000000000000 ) ) ;
#214 = CIRCLE ( 'NONE', #267, 0.2000000000000000944 ) ;
#215 = EDGE_CURVE ( 'NONE', #307, #25, #109, .T. ) ;
#216 = AXIS2_PLACEMENT_3D ( 'NONE', #218, #296, #169 ) ;
#217 = CC_DESIGN_APPROVAL ( #51, ( #180 ) ) ;
#218 = CARTESIAN_POINT ( 'NONE',  ( 0.000000000000000000, 0.000000000000000000, 2.000000000000000000 ) ) ;
#219 = CARTESIAN_POINT ( 'NONE',  ( -1.250000000000000000, 0.000000000000000000, 2.199999999999993516 ) ) ;
#220 = DIRECTION ( 'NONE',  ( 0.000000000000000000, 0.000000000000000000, 1.000000000000000000 ) ) ;
#221 = APPROVAL ( #91, 'NEURÈENÝ' ) ;
#222 = CYLINDRICAL_SURFACE ( 'NONE', #210, 2.500000000000000000 ) ;
#223 = COORDINATED_UNIVERSAL_TIME_OFFSET ( 1, 0, .AHEAD. ) ;
#224 = CIRCLE ( 'NONE', #245, 2.500000000000000000 ) ;
#225 = LOCAL_TIME ( 12, 33, 26.00000000000000000, #223 ) ;
#226 = DATE_AND_TIME ( #306, #294 ) ;
#227 = EDGE_LOOP ( 'NONE', ( #239, #98, #138, #181 ) ) ;
#228 = COORDINATED_UNIVERSAL_TIME_OFFSET ( 1, 0, .AHEAD. ) ;
#229 = PERSON_AND_ORGANIZATION ( #99, #43 ) ;
#230 = ORIENTED_EDGE ( 'NONE', *, *, #297, .T. ) ;
#231 = CC_DESIGN_SECURITY_CLASSIFICATION ( #34, ( #180 ) ) ;
#232 = EDGE_LOOP ( 'NONE', ( #176, #72, #186, #40 ) ) ;
#233 = DIRECTION ( 'NONE',  ( -1.000000000000000000, 0.000000000000000000, 0.000000000000000000 ) ) ;
#234 = ADVANCED_FACE ( 'NONE', ( #289 ), #244, .T. ) ;
#235 = CARTESIAN_POINT ( 'NONE',  ( 1.250000000000000000, 1.530808498934191571E-16, 127.0000000000000000 ) ) ;
#236 = CC_DESIGN_DATE_AND_TIME_ASSIGNMENT ( #90, #108, ( #157 ) ) ;
#237 = DIRECTION ( 'NONE',  ( -0.000000000000000000, -0.000000000000000000, -1.000000000000000000 ) ) ;
#238 = CARTESIAN_POINT ( 'NONE',  ( -1.250000000000000000, 0.000000000000000000, 127.0000000000000000 ) ) ;
#239 = ORIENTED_EDGE ( 'NONE', *, *, #18, .F. ) ;
#240 = CARTESIAN_POINT ( 'NONE',  ( 0.000000000000000000, 0.000000000000000000, 127.0000000000000000 ) ) ;
#241 = APPROVAL_PERSON_ORGANIZATION ( #304, #221, #205 ) ;
#242 = CARTESIAN_POINT ( 'NONE',  ( 0.000000000000000000, 0.000000000000000000, 0.000000000000000000 ) ) ;
#243 = CARTESIAN_POINT ( 'NONE',  ( 1.450000000000000178, 0.000000000000000000, 2.199999999999993516 ) ) ;
#244 = PLANE ( 'NONE',  #259 ) ;
#245 = AXIS2_PLACEMENT_3D ( 'NONE', #105, #148, #106 ) ;
#246 = DIRECTION ( 'NONE',  ( 1.000000000000000000, 0.000000000000000000, 0.000000000000000000 ) ) ;
#247 = EDGE_LOOP ( 'NONE', ( #161, #258, #230, #48 ) ) ;
#248 = PERSON_AND_ORGANIZATION_ROLE ( 'creator' ) ;
#249 = APPROVAL_DATE_TIME ( #196, #103 ) ;
#250 = EDGE_CURVE ( 'NONE', #197, #23, #269, .T. ) ;
#251 = VERTEX_POINT ( 'NONE', #127 ) ;
#252 = VERTEX_POINT ( 'NONE', #35 ) ;
#253 = AXIS2_PLACEMENT_3D ( 'NONE', #142, #184, #76 ) ;
#254 = APPROVAL_PERSON_ORGANIZATION ( #201, #103, #134 ) ;
#255 = ADVANCED_FACE ( 'NONE', ( #102 ), #11, .T. ) ;
#256 = ORIENTED_EDGE ( 'NONE', *, *, #174, .T. ) ;
#257 = DIRECTION ( 'NONE',  ( -0.000000000000000000, -0.000000000000000000, -1.000000000000000000 ) ) ;
#258 = ORIENTED_EDGE ( 'NONE', *, *, #8, .T. ) ;
#259 = AXIS2_PLACEMENT_3D ( 'NONE', #240, #83, #55 ) ;
#260 = DIRECTION ( 'NONE',  ( 1.000000000000000000, 0.000000000000000000, 0.000000000000000000 ) ) ;
#261 = EDGE_CURVE ( 'NONE', #251, #95, #123, .T. ) ;
#262 = LINE ( 'NONE', #75, #292 ) ;
#263 = CARTESIAN_POINT ( 'NONE',  ( 0.000000000000000000, 0.000000000000000000, 2.199999999999993516 ) ) ;
#264 = CARTESIAN_POINT ( 'NONE',  ( 1.250000000000000000, 1.530808498934191571E-16, 2.199999999999993516 ) ) ;
#265 = ADVANCED_FACE ( 'NONE', ( #188 ), #222, .T. ) ;
#266 = DIRECTION ( 'NONE',  ( 1.000000000000000000, 0.000000000000000000, 0.000000000000000000 ) ) ;
#267 = AXIS2_PLACEMENT_3D ( 'NONE', #185, #118, #141 ) ;
#268 = DIRECTION ( 'NONE',  ( 1.000000000000000000, 0.000000000000000000, 0.000000000000000000 ) ) ;
#269 = CIRCLE ( 'NONE', #128, 1.450000000000000178 ) ;
#270 = ADVANCED_FACE ( 'NONE', ( #13 ), #147, .F. ) ;
#271 = SHAPE_DEFINITION_REPRESENTATION ( #20, #156 ) ;
#272 = EDGE_LOOP ( 'NONE', ( #21, #29, #5, #155 ) ) ;
#273 = CALENDAR_DATE ( 2022, 7, 7 ) ;
#274 = VERTEX_POINT ( 'NONE', #264 ) ;
#275 = SECURITY_CLASSIFICATION_LEVEL ( 'unclassified' ) ;
#276 = CC_DESIGN_PERSON_AND_ORGANIZATION_ASSIGNMENT ( #178, #203, ( #180 ) ) ;
#277 = ORIENTED_EDGE ( 'NONE', *, *, #8, .F. ) ;
#278 = EDGE_CURVE ( 'NONE', #25, #307, #224, .T. ) ;
#279 = DIRECTION ( 'NONE',  ( -0.000000000000000000, -0.000000000000000000, -1.000000000000000000 ) ) ;
#280 = AXIS2_PLACEMENT_3D ( 'NONE', #33, #291, #101 ) ;
#281 = CARTESIAN_POINT ( 'NONE',  ( 0.000000000000000000, 0.000000000000000000, 127.0000000000000000 ) ) ;
#282 = CARTESIAN_POINT ( 'NONE',  ( 2.500000000000000000, 3.061616997868383141E-16, 0.000000000000000000 ) ) ;
#283 = DIRECTION ( 'NONE',  ( -0.000000000000000000, -0.000000000000000000, -1.000000000000000000 ) ) ;
#284 = MANIFOLD_SOLID_BREP ( 'Zaoblit1', #122 ) ;
#285 = EDGE_CURVE ( 'NONE', #163, #274, #293, .T. ) ;
#286 = CIRCLE ( 'NONE', #253, 1.450000000000000178 ) ;
#287 = AXIS2_PLACEMENT_3D ( 'NONE', #242, #62, #126 ) ;
#288 = DIRECTION ( 'NONE',  ( 0.000000000000000000, 0.000000000000000000, 1.000000000000000000 ) ) ;
#289 = FACE_OUTER_BOUND ( 'NONE', #135, .T. ) ;
#290 = EDGE_CURVE ( 'NONE', #252, #46, #56, .T. ) ;
#291 = DIRECTION ( 'NONE',  ( -0.000000000000000000, -0.000000000000000000, -1.000000000000000000 ) ) ;
#292 = VECTOR ( 'NONE', #283, 1000.000000000000000 ) ;
#293 = CIRCLE ( 'NONE', #113, 1.250000000000000000 ) ;
#294 = LOCAL_TIME ( 12, 33, 26.00000000000000000, #179 ) ;
#295 = CARTESIAN_POINT ( 'NONE',  ( -1.450000000000000178, 1.775737858763662409E-16, 1.999999999999996669 ) ) ;
#296 = DIRECTION ( 'NONE',  ( 0.000000000000000000, 0.000000000000000000, 1.000000000000000000 ) ) ;
#297 = EDGE_CURVE ( 'NONE', #46, #252, #3, .T. ) ;
#298 = VECTOR ( 'NONE', #237, 1000.000000000000000 ) ;
#299 =( NAMED_UNIT ( * ) SI_UNIT ( $, .STERADIAN. ) SOLID_ANGLE_UNIT ( ) );
#300 = ORIENTED_EDGE ( 'NONE', *, *, #146, .T. ) ;
#301 = LOCAL_TIME ( 12, 33, 26.00000000000000000, #107 ) ;
#302 = CALENDAR_DATE ( 2022, 7, 7 ) ;
#303 = PERSON_AND_ORGANIZATION_ROLE ( 'creator' ) ;
#304 = PERSON_AND_ORGANIZATION ( #99, #43 ) ;
#305 = ORIENTED_EDGE ( 'NONE', *, *, #297, .F. ) ;
#306 = CALENDAR_DATE ( 2022, 7, 7 ) ;
#307 = VERTEX_POINT ( 'NONE', #80 ) ;
ENDSEC;
END-ISO-10303-21;
