ISO-10303-21;
HEADER;
FILE_DESCRIPTION (( 'STEP AP203' ),
    '1' );
FILE_NAME ('af30.STEP',
    '2022-07-07T10:36:53',
    ( '' ),
    ( '' ),
    'SwSTEP 2.0',
    'SolidWorks 2019',
    '' );
FILE_SCHEMA (( 'CONFIG_CONTROL_DESIGN' ));
ENDSEC;

DATA;
#1 = APPROVAL_ROLE ( '' ) ;
#2 = ORIENTED_EDGE ( 'NONE', *, *, #141, .T. ) ;
#3 = AXIS2_PLACEMENT_3D ( 'NONE', #108, #46, #22 ) ;
#4 = SHAPE_DEFINITION_REPRESENTATION ( #71, #93 ) ;
#5 = SECURITY_CLASSIFICATION ( '', '', #306 ) ;
#6 = ORIENTED_EDGE ( 'NONE', *, *, #254, .T. ) ;
#7 = DIRECTION ( 'NONE',  ( -0.000000000000000000, -0.000000000000000000, -1.000000000000000000 ) ) ;
#8 = EDGE_LOOP ( 'NONE', ( #59, #102 ) ) ;
#9 = VECTOR ( 'NONE', #271, 1000.000000000000000 ) ;
#10 = VERTEX_POINT ( 'NONE', #120 ) ;
#11 = DIRECTION ( 'NONE',  ( -0.000000000000000000, -0.000000000000000000, -1.000000000000000000 ) ) ;
#12 = EDGE_CURVE ( 'NONE', #84, #117, #127, .T. ) ;
#13 = ORIENTED_EDGE ( 'NONE', *, *, #48, .F. ) ;
#14 = LOCAL_TIME ( 12, 36, 53.00000000000000000, #49 ) ;
#15 = CARTESIAN_POINT ( 'NONE',  ( 0.000000000000000000, 0.000000000000000000, 1.500000000000000000 ) ) ;
#16 = CARTESIAN_POINT ( 'NONE',  ( 0.000000000000000000, 0.000000000000000000, 0.000000000000000000 ) ) ;
#17 = EDGE_CURVE ( 'NONE', #216, #195, #44, .T. ) ;
#18 = DIRECTION ( 'NONE',  ( 1.000000000000000000, 0.000000000000000000, -0.000000000000000000 ) ) ;
#19 = APPROVAL_PERSON_ORGANIZATION ( #189, #52, #261 ) ;
#20 = ORIENTED_EDGE ( 'NONE', *, *, #212, .F. ) ;
#21 = FACE_OUTER_BOUND ( 'NONE', #280, .T. ) ;
#22 = DIRECTION ( 'NONE',  ( 1.000000000000000000, 0.000000000000000000, 0.000000000000000000 ) ) ;
#23 = APPROVAL_DATE_TIME ( #238, #156 ) ;
#24 = CIRCLE ( 'NONE', #221, 2.000000000000000000 ) ;
#25 = LOCAL_TIME ( 12, 36, 53.00000000000000000, #28 ) ;
#26 = APPROVAL_ROLE ( '' ) ;
#27 = CLOSED_SHELL ( 'NONE', ( #123, #287, #298, #218, #176, #275, #152, #80, #265 ) ) ;
#28 = COORDINATED_UNIVERSAL_TIME_OFFSET ( 1, 0, .AHEAD. ) ;
#29 = CARTESIAN_POINT ( 'NONE',  ( 2.000000000000000000, 2.449293598294706414E-16, 1.500000000000000000 ) ) ;
#30 = EDGE_CURVE ( 'NONE', #112, #219, #90, .T. ) ;
#31 = DIRECTION ( 'NONE',  ( 0.000000000000000000, -1.000000000000000000, 0.000000000000000000 ) ) ;
#32 = DIRECTION ( 'NONE',  ( 1.000000000000000000, 0.000000000000000000, 0.000000000000000000 ) ) ;
#33 = APPROVAL_PERSON_ORGANIZATION ( #187, #156, #1 ) ;
#34 = LOCAL_TIME ( 12, 36, 53.00000000000000000, #305 ) ;
#35 = ORIENTED_EDGE ( 'NONE', *, *, #48, .T. ) ;
#36 = EDGE_CURVE ( 'NONE', #159, #10, #247, .T. ) ;
#37 = LINE ( 'NONE', #60, #149 ) ;
#38 = CYLINDRICAL_SURFACE ( 'NONE', #196, 0.9499999999999999556 ) ;
#39 = CIRCLE ( 'NONE', #61, 2.000000000000000000 ) ;
#40 = CARTESIAN_POINT ( 'NONE',  ( -2.000000000000000000, 0.000000000000000000, 1.500000000000000000 ) ) ;
#41 = DIRECTION ( 'NONE',  ( 0.000000000000000000, 0.000000000000000000, 1.000000000000000000 ) ) ;
#42 = ORIENTED_EDGE ( 'NONE', *, *, #30, .F. ) ;
#43 =( NAMED_UNIT ( * ) PLANE_ANGLE_UNIT ( ) SI_UNIT ( $, .RADIAN. ) );
#44 = CIRCLE ( 'NONE', #95, 0.9499999999999999556 ) ;
#45 = ORIENTED_EDGE ( 'NONE', *, *, #70, .T. ) ;
#46 = DIRECTION ( 'NONE',  ( 0.000000000000000000, 0.000000000000000000, 1.000000000000000000 ) ) ;
#47 = EDGE_LOOP ( 'NONE', ( #42, #255, #303, #169 ) ) ;
#48 = EDGE_CURVE ( 'NONE', #216, #84, #37, .T. ) ;
#49 = COORDINATED_UNIVERSAL_TIME_OFFSET ( 1, 0, .AHEAD. ) ;
#50 = AXIS2_PLACEMENT_3D ( 'NONE', #279, #113, #69 ) ;
#51 = PERSON_AND_ORGANIZATION ( #143, #201 ) ;
#52 = APPROVAL ( #72, 'NEURÈENÝ' ) ;
#53 = PERSON_AND_ORGANIZATION ( #143, #201 ) ;
#54 = PRODUCT_RELATED_PRODUCT_CATEGORY ( 'detail', '', ( #121 ) ) ;
#55 = VERTEX_POINT ( 'NONE', #245 ) ;
#56 = DIRECTION ( 'NONE',  ( 1.000000000000000000, 0.000000000000000000, 0.000000000000000000 ) ) ;
#57 = LOCAL_TIME ( 12, 36, 53.00000000000000000, #73 ) ;
#58 = DIRECTION ( 'NONE',  ( 0.000000000000000000, 0.000000000000000000, 1.000000000000000000 ) ) ;
#59 = ORIENTED_EDGE ( 'NONE', *, *, #229, .T. ) ;
#60 = CARTESIAN_POINT ( 'NONE',  ( 0.9499999999999999556, 1.163414459189985682E-16, 101.5000000000000000 ) ) ;
#61 = AXIS2_PLACEMENT_3D ( 'NONE', #122, #248, #170 ) ;
#62 = CARTESIAN_POINT ( 'NONE',  ( 1.149999999999999911, 0.000000000000000000, 1.700000000000007061 ) ) ;
#63 = DIRECTION ( 'NONE',  ( 1.224646799147353207E-16, 1.000000000000000000, -0.000000000000000000 ) ) ;
#64 = CARTESIAN_POINT ( 'NONE',  ( 0.000000000000000000, 0.000000000000000000, 1.500000000000000000 ) ) ;
#65 = DIRECTION ( 'NONE',  ( -1.000000000000000000, 0.000000000000000000, 0.000000000000000000 ) ) ;
#66 = CARTESIAN_POINT ( 'NONE',  ( 0.000000000000000000, 0.000000000000000000, 1.500000000000000000 ) ) ;
#67 = CARTESIAN_POINT ( 'NONE',  ( 0.000000000000000000, 0.000000000000000000, 1.700000000000007061 ) ) ;
#68 = ORIENTED_EDGE ( 'NONE', *, *, #17, .F. ) ;
#69 = DIRECTION ( 'NONE',  ( 1.000000000000000000, 0.000000000000000000, 0.000000000000000000 ) ) ;
#70 = EDGE_CURVE ( 'NONE', #55, #107, #174, .T. ) ;
#71 = PRODUCT_DEFINITION_SHAPE ( 'NONE', 'NONE',  #97 ) ;
#72 = APPROVAL_STATUS ( 'not_yet_approved' ) ;
#73 = COORDINATED_UNIVERSAL_TIME_OFFSET ( 1, 0, .AHEAD. ) ;
#74 = AXIS2_PLACEMENT_3D ( 'NONE', #66, #209, #131 ) ;
#75 = CC_DESIGN_PERSON_AND_ORGANIZATION_ASSIGNMENT ( #53, #192, ( #5 ) ) ;
#76 = ORIENTED_EDGE ( 'NONE', *, *, #91, .F. ) ;
#77 = APPLICATION_CONTEXT ( 'configuration controlled 3d designs of mechanical parts and assemblies' ) ;
#78 = ORIENTED_EDGE ( 'NONE', *, *, #243, .T. ) ;
#79 = ORIENTED_EDGE ( 'NONE', *, *, #212, .T. ) ;
#80 = ADVANCED_FACE ( 'NONE', ( #294 ), #125, .T. ) ;
#81 = CIRCLE ( 'NONE', #256, 2.000000000000000000 ) ;
#82 = CARTESIAN_POINT ( 'NONE',  ( 0.000000000000000000, 0.000000000000000000, 101.5000000000000000 ) ) ;
#83 = DIRECTION ( 'NONE',  ( 1.000000000000000000, 0.000000000000000000, 0.000000000000000000 ) ) ;
#84 = VERTEX_POINT ( 'NONE', #101 ) ;
#85 = LOCAL_TIME ( 12, 36, 53.00000000000000000, #283 ) ;
#86 = CARTESIAN_POINT ( 'NONE',  ( 2.000000000000000000, 2.449293598294706414E-16, 0.000000000000000000 ) ) ;
#87 = DIRECTION ( 'NONE',  ( 0.000000000000000000, 0.000000000000000000, 1.000000000000000000 ) ) ;
#88 = DESIGN_CONTEXT ( 'detailed design', #77, 'design' ) ;
#89 = CARTESIAN_POINT ( 'NONE',  ( -0.9499999999999999556, 0.000000000000000000, 101.5000000000000000 ) ) ;
#90 = CIRCLE ( 'NONE', #111, 0.2000000000000000944 ) ;
#91 = EDGE_CURVE ( 'NONE', #107, #10, #39, .T. ) ;
#92 = DIRECTION ( 'NONE',  ( 0.000000000000000000, 0.000000000000000000, 1.000000000000000000 ) ) ;
#93 = ADVANCED_BREP_SHAPE_REPRESENTATION ( 'af30', ( #130, #296 ), #161 ) ;
#94 = DATE_AND_TIME ( #215, #25 ) ;
#95 = AXIS2_PLACEMENT_3D ( 'NONE', #225, #202, #32 ) ;
#96 = DATE_AND_TIME ( #116, #14 ) ;
#97 = PRODUCT_DEFINITION ( 'NEZNÁMÝ', '', #226, #88 ) ;
#98 = ORIENTED_EDGE ( 'NONE', *, *, #132, .F. ) ;
#99 = CC_DESIGN_APPROVAL ( #252, ( #5 ) ) ;
#100 = ORIENTED_EDGE ( 'NONE', *, *, #36, .F. ) ;
#101 = CARTESIAN_POINT ( 'NONE',  ( 0.9499999999999999556, 1.163414459189985682E-16, 1.700000000000007061 ) ) ;
#102 = ORIENTED_EDGE ( 'NONE', *, *, #17, .T. ) ;
#103 = CC_DESIGN_DATE_AND_TIME_ASSIGNMENT ( #239, #115, ( #97 ) ) ;
#104 = DIRECTION ( 'NONE',  ( -0.000000000000000000, -0.000000000000000000, -1.000000000000000000 ) ) ;
#105 = CYLINDRICAL_SURFACE ( 'NONE', #232, 0.9499999999999999556 ) ;
#106 = AXIS2_PLACEMENT_3D ( 'NONE', #173, #147, #150 ) ;
#107 = VERTEX_POINT ( 'NONE', #86 ) ;
#108 = CARTESIAN_POINT ( 'NONE',  ( 0.000000000000000000, 0.000000000000000000, 101.5000000000000000 ) ) ;
#109 = DIRECTION ( 'NONE',  ( 1.000000000000000000, 0.000000000000000000, 0.000000000000000000 ) ) ;
#110 = CARTESIAN_POINT ( 'NONE',  ( 0.000000000000000000, 0.000000000000000000, 0.000000000000000000 ) ) ;
#111 = AXIS2_PLACEMENT_3D ( 'NONE', #268, #63, #270 ) ;
#112 = VERTEX_POINT ( 'NONE', #266 ) ;
#113 = DIRECTION ( 'NONE',  ( -0.000000000000000000, -0.000000000000000000, -1.000000000000000000 ) ) ;
#114 = CARTESIAN_POINT ( 'NONE',  ( 0.000000000000000000, 0.000000000000000000, 1.700000000000007061 ) ) ;
#115 = DATE_TIME_ROLE ( 'creation_date' ) ;
#116 = CALENDAR_DATE ( 2022, 7, 7 ) ;
#117 = VERTEX_POINT ( 'NONE', #197 ) ;
#118 =( NAMED_UNIT ( * ) SI_UNIT ( $, .STERADIAN. ) SOLID_ANGLE_UNIT ( ) );
#119 = CALENDAR_DATE ( 2022, 7, 7 ) ;
#120 = CARTESIAN_POINT ( 'NONE',  ( -2.000000000000000000, 0.000000000000000000, 0.000000000000000000 ) ) ;
#121 = PRODUCT ( 'af30', 'af30', '', ( #136 ) ) ;
#122 = CARTESIAN_POINT ( 'NONE',  ( 0.000000000000000000, 0.000000000000000000, 0.000000000000000000 ) ) ;
#123 = ADVANCED_FACE ( 'NONE', ( #273 ), #285, .F. ) ;
#124 = CIRCLE ( 'NONE', #217, 0.9499999999999999556 ) ;
#125 = PLANE ( 'NONE',  #267 ) ;
#126 = ORIENTED_EDGE ( 'NONE', *, *, #36, .T. ) ;
#127 = CIRCLE ( 'NONE', #205, 0.2000000000000000944 ) ;
#128 = DIRECTION ( 'NONE',  ( 1.000000000000000000, 0.000000000000000000, -0.000000000000000000 ) ) ;
#129 = PLANE ( 'NONE',  #262 ) ;
#130 = MANIFOLD_SOLID_BREP ( 'Zaoblit1', #27 ) ;
#131 = DIRECTION ( 'NONE',  ( 1.000000000000000000, 0.000000000000000000, 0.000000000000000000 ) ) ;
#132 = EDGE_CURVE ( 'NONE', #55, #159, #211, .T. ) ;
#133 = ORIENTED_EDGE ( 'NONE', *, *, #269, .T. ) ;
#134 = AXIS2_PLACEMENT_3D ( 'NONE', #15, #257, #300 ) ;
#135 = APPLICATION_PROTOCOL_DEFINITION ( 'international standard', 'config_control_design', 1994, #77 ) ;
#136 = MECHANICAL_CONTEXT ( 'NONE', #200, 'mechanical' ) ;
#137 = APPROVAL_PERSON_ORGANIZATION ( #260, #252, #26 ) ;
#138 = PERSON_AND_ORGANIZATION_ROLE ( 'creator' ) ;
#139 = DATE_TIME_ROLE ( 'classification_date' ) ;
#140 = EDGE_LOOP ( 'NONE', ( #98, #45, #234, #100 ) ) ;
#141 = EDGE_CURVE ( 'NONE', #195, #112, #246, .T. ) ;
#142 = APPROVAL_STATUS ( 'not_yet_approved' ) ;
#143 = PERSON ( 'NEURÈENÝ', 'NEURÈENÝ', 'NEURÈENÝ', ('NEURÈENÝ'), ('NEURÈENÝ'), ('NEURÈENÝ') ) ;
#144 = DIRECTION ( 'NONE',  ( 0.000000000000000000, 0.000000000000000000, -1.000000000000000000 ) ) ;
#145 = CC_DESIGN_PERSON_AND_ORGANIZATION_ASSIGNMENT ( #241, #184, ( #121 ) ) ;
#146 = CARTESIAN_POINT ( 'NONE',  ( -2.000000000000000000, 0.000000000000000000, 1.500000000000000000 ) ) ;
#147 = DIRECTION ( 'NONE',  ( 0.000000000000000000, 0.000000000000000000, 1.000000000000000000 ) ) ;
#148 = AXIS2_PLACEMENT_3D ( 'NONE', #274, #180, #128 ) ;
#149 = VECTOR ( 'NONE', #104, 1000.000000000000000 ) ;
#150 = DIRECTION ( 'NONE',  ( 1.000000000000000000, 0.000000000000000000, 0.000000000000000000 ) ) ;
#151 = DIRECTION ( 'NONE',  ( 0.000000000000000000, 0.000000000000000000, 1.000000000000000000 ) ) ;
#152 = ADVANCED_FACE ( 'NONE', ( #222 ), #105, .T. ) ;
#153 = DIRECTION ( 'NONE',  ( 0.000000000000000000, 0.000000000000000000, 1.000000000000000000 ) ) ;
#154 = CIRCLE ( 'NONE', #74, 1.149999999999999911 ) ;
#155 = DIRECTION ( 'NONE',  ( 1.000000000000000000, 0.000000000000000000, 0.000000000000000000 ) ) ;
#156 = APPROVAL ( #163, 'NEURÈENÝ' ) ;
#157 =( LENGTH_UNIT ( ) NAMED_UNIT ( * ) SI_UNIT ( .MILLI., .METRE. ) );
#158 = FACE_BOUND ( 'NONE', #183, .T. ) ;
#159 = VERTEX_POINT ( 'NONE', #40 ) ;
#160 = DIRECTION ( 'NONE',  ( -0.000000000000000000, -0.000000000000000000, -1.000000000000000000 ) ) ;
#161 =( GEOMETRIC_REPRESENTATION_CONTEXT ( 3 ) GLOBAL_UNCERTAINTY_ASSIGNED_CONTEXT ( ( #249 ) ) GLOBAL_UNIT_ASSIGNED_CONTEXT ( ( #157, #43, #118 ) ) REPRESENTATION_CONTEXT ( 'NONE', 'WORKASPACE' ) );
#162 = ORIENTED_EDGE ( 'NONE', *, *, #282, .T. ) ;
#163 = APPROVAL_STATUS ( 'not_yet_approved' ) ;
#164 = CALENDAR_DATE ( 2022, 7, 7 ) ;
#165 = AXIS2_PLACEMENT_3D ( 'NONE', #204, #177, #65 ) ;
#166 = CC_DESIGN_SECURITY_CLASSIFICATION ( #5, ( #226 ) ) ;
#167 = APPROVAL_DATE_TIME ( #264, #52 ) ;
#168 = APPROVAL_DATE_TIME ( #94, #252 ) ;
#169 = ORIENTED_EDGE ( 'NONE', *, *, #254, .F. ) ;
#170 = DIRECTION ( 'NONE',  ( 1.000000000000000000, 0.000000000000000000, 0.000000000000000000 ) ) ;
#171 = VECTOR ( 'NONE', #7, 1000.000000000000000 ) ;
#172 = ORIENTED_EDGE ( 'NONE', *, *, #12, .F. ) ;
#173 = CARTESIAN_POINT ( 'NONE',  ( 0.000000000000000000, 0.000000000000000000, 1.500000000000000000 ) ) ;
#174 = LINE ( 'NONE', #29, #171 ) ;
#175 = DIRECTION ( 'NONE',  ( -1.000000000000000000, 0.000000000000000000, 0.000000000000000000 ) ) ;
#176 = ADVANCED_FACE ( 'NONE', ( #158, #21 ), #203, .T. ) ;
#177 = DIRECTION ( 'NONE',  ( -0.000000000000000000, -0.000000000000000000, -1.000000000000000000 ) ) ;
#178 = CARTESIAN_POINT ( 'NONE',  ( -1.149999999999999911, 1.408343819019456028E-16, 1.500000000000003553 ) ) ;
#179 = CIRCLE ( 'NONE', #191, 0.9499999999999999556 ) ;
#180 = DIRECTION ( 'NONE',  ( 0.000000000000000000, 0.000000000000000000, 1.000000000000000000 ) ) ;
#181 = FACE_OUTER_BOUND ( 'NONE', #258, .T. ) ;
#182 = CYLINDRICAL_SURFACE ( 'NONE', #134, 2.000000000000000000 ) ;
#183 = EDGE_LOOP ( 'NONE', ( #133, #6 ) ) ;
#184 = PERSON_AND_ORGANIZATION_ROLE ( 'design_owner' ) ;
#185 = CC_DESIGN_APPROVAL ( #156, ( #97 ) ) ;
#186 = APPLICATION_PROTOCOL_DEFINITION ( 'international standard', 'config_control_design', 1994, #200 ) ;
#187 = PERSON_AND_ORGANIZATION ( #143, #201 ) ;
#188 = CC_DESIGN_PERSON_AND_ORGANIZATION_ASSIGNMENT ( #51, #138, ( #226 ) ) ;
#189 = PERSON_AND_ORGANIZATION ( #143, #201 ) ;
#190 = EDGE_LOOP ( 'NONE', ( #13, #193, #2, #289 ) ) ;
#191 = AXIS2_PLACEMENT_3D ( 'NONE', #114, #92, #155 ) ;
#192 = PERSON_AND_ORGANIZATION_ROLE ( 'classification_officer' ) ;
#193 = ORIENTED_EDGE ( 'NONE', *, *, #229, .F. ) ;
#194 = ORIENTED_EDGE ( 'NONE', *, *, #269, .F. ) ;
#195 = VERTEX_POINT ( 'NONE', #89 ) ;
#196 = AXIS2_PLACEMENT_3D ( 'NONE', #227, #160, #230 ) ;
#197 = CARTESIAN_POINT ( 'NONE',  ( 1.149999999999999911, 0.000000000000000000, 1.500000000000003553 ) ) ;
#198 = CARTESIAN_POINT ( 'NONE',  ( 0.000000000000000000, 0.000000000000000000, 101.5000000000000000 ) ) ;
#199 = DIRECTION ( 'NONE',  ( -0.000000000000000000, -0.000000000000000000, -1.000000000000000000 ) ) ;
#200 = APPLICATION_CONTEXT ( 'configuration controlled 3d designs of mechanical parts and assemblies' ) ;
#201 = ORGANIZATION ( 'NEURÈENÝ', 'NEURÈENÝ', '' ) ;
#202 = DIRECTION ( 'NONE',  ( 0.000000000000000000, 0.000000000000000000, 1.000000000000000000 ) ) ;
#203 = PLANE ( 'NONE',  #148 ) ;
#204 = CARTESIAN_POINT ( 'NONE',  ( 0.000000000000000000, 0.000000000000000000, 1.500000000000000000 ) ) ;
#205 = AXIS2_PLACEMENT_3D ( 'NONE', #62, #31, #144 ) ;
#206 = DIRECTION ( 'NONE',  ( 1.000000000000000000, 0.000000000000000000, 0.000000000000000000 ) ) ;
#207 = ORIENTED_EDGE ( 'NONE', *, *, #30, .T. ) ;
#208 = ORIENTED_EDGE ( 'NONE', *, *, #291, .F. ) ;
#209 = DIRECTION ( 'NONE',  ( -0.000000000000000000, -0.000000000000000000, -1.000000000000000000 ) ) ;
#210 = PERSON_AND_ORGANIZATION_ROLE ( 'design_supplier' ) ;
#211 = CIRCLE ( 'NONE', #106, 2.000000000000000000 ) ;
#212 = EDGE_CURVE ( 'NONE', #10, #107, #81, .T. ) ;
#213 = PERSON_AND_ORGANIZATION ( #143, #201 ) ;
#214 = EDGE_LOOP ( 'NONE', ( #208, #207, #194, #172 ) ) ;
#215 = CALENDAR_DATE ( 2022, 7, 7 ) ;
#216 = VERTEX_POINT ( 'NONE', #235 ) ;
#217 = AXIS2_PLACEMENT_3D ( 'NONE', #67, #233, #109 ) ;
#218 = ADVANCED_FACE ( 'NONE', ( #181 ), #276, .T. ) ;
#219 = VERTEX_POINT ( 'NONE', #178 ) ;
#220 = ORIENTED_EDGE ( 'NONE', *, *, #70, .F. ) ;
#221 = AXIS2_PLACEMENT_3D ( 'NONE', #64, #153, #250 ) ;
#222 = FACE_OUTER_BOUND ( 'NONE', #190, .T. ) ;
#223 = CC_DESIGN_PERSON_AND_ORGANIZATION_ASSIGNMENT ( #213, #236, ( #97 ) ) ;
#224 = ORIENTED_EDGE ( 'NONE', *, *, #132, .T. ) ;
#225 = CARTESIAN_POINT ( 'NONE',  ( 0.000000000000000000, 0.000000000000000000, 101.5000000000000000 ) ) ;
#226 = PRODUCT_DEFINITION_FORMATION_WITH_SPECIFIED_SOURCE ( 'LIBOVOLNÝ', '', #121, .NOT_KNOWN. ) ;
#227 = CARTESIAN_POINT ( 'NONE',  ( 0.000000000000000000, 0.000000000000000000, 101.5000000000000000 ) ) ;
#228 = FACE_OUTER_BOUND ( 'NONE', #140, .T. ) ;
#229 = EDGE_CURVE ( 'NONE', #195, #216, #290, .T. ) ;
#230 = DIRECTION ( 'NONE',  ( -1.000000000000000000, 0.000000000000000000, 0.000000000000000000 ) ) ;
#231 = ORIENTED_EDGE ( 'NONE', *, *, #282, .F. ) ;
#232 = AXIS2_PLACEMENT_3D ( 'NONE', #198, #11, #175 ) ;
#233 = DIRECTION ( 'NONE',  ( 0.000000000000000000, 0.000000000000000000, 1.000000000000000000 ) ) ;
#234 = ORIENTED_EDGE ( 'NONE', *, *, #91, .T. ) ;
#235 = CARTESIAN_POINT ( 'NONE',  ( 0.9499999999999999556, 1.163414459189985682E-16, 101.5000000000000000 ) ) ;
#236 = PERSON_AND_ORGANIZATION_ROLE ( 'creator' ) ;
#237 = VECTOR ( 'NONE', #199, 1000.000000000000000 ) ;
#238 = DATE_AND_TIME ( #119, #85 ) ;
#239 = DATE_AND_TIME ( #164, #57 ) ;
#240 = EDGE_LOOP ( 'NONE', ( #68, #35, #78, #292 ) ) ;
#241 = PERSON_AND_ORGANIZATION ( #143, #201 ) ;
#242 = AXIS2_PLACEMENT_3D ( 'NONE', #281, #253, #206 ) ;
#243 = EDGE_CURVE ( 'NONE', #84, #112, #179, .T. ) ;
#244 = CARTESIAN_POINT ( 'NONE',  ( 0.000000000000000000, 0.000000000000000000, 1.700000000000007061 ) ) ;
#245 = CARTESIAN_POINT ( 'NONE',  ( 2.000000000000000000, 2.449293598294706414E-16, 1.500000000000000000 ) ) ;
#246 = LINE ( 'NONE', #295, #237 ) ;
#247 = LINE ( 'NONE', #146, #9 ) ;
#248 = DIRECTION ( 'NONE',  ( 0.000000000000000000, 0.000000000000000000, 1.000000000000000000 ) ) ;
#249 = UNCERTAINTY_MEASURE_WITH_UNIT (LENGTH_MEASURE( 1.000000000000000082E-05 ), #157, 'distance_accuracy_value', 'NONE');
#250 = DIRECTION ( 'NONE',  ( 1.000000000000000000, 0.000000000000000000, 0.000000000000000000 ) ) ;
#251 = FACE_OUTER_BOUND ( 'NONE', #288, .T. ) ;
#252 = APPROVAL ( #142, 'NEURÈENÝ' ) ;
#253 = DIRECTION ( 'NONE',  ( 0.000000000000000000, 0.000000000000000000, 1.000000000000000000 ) ) ;
#254 = EDGE_CURVE ( 'NONE', #219, #117, #272, .T. ) ;
#255 = ORIENTED_EDGE ( 'NONE', *, *, #243, .F. ) ;
#256 = AXIS2_PLACEMENT_3D ( 'NONE', #110, #41, #299 ) ;
#257 = DIRECTION ( 'NONE',  ( -0.000000000000000000, -0.000000000000000000, -1.000000000000000000 ) ) ;
#258 = EDGE_LOOP ( 'NONE', ( #220, #231, #126, #79 ) ) ;
#259 = CARTESIAN_POINT ( 'NONE',  ( 0.000000000000000000, 0.000000000000000000, 0.000000000000000000 ) ) ;
#260 = PERSON_AND_ORGANIZATION ( #143, #201 ) ;
#261 = APPROVAL_ROLE ( '' ) ;
#262 = AXIS2_PLACEMENT_3D ( 'NONE', #16, #87, #18 ) ;
#263 = PERSON_AND_ORGANIZATION ( #143, #201 ) ;
#264 = DATE_AND_TIME ( #284, #34 ) ;
#265 = ADVANCED_FACE ( 'NONE', ( #278 ), #277, .F. ) ;
#266 = CARTESIAN_POINT ( 'NONE',  ( -0.9499999999999999556, 0.000000000000000000, 1.700000000000007061 ) ) ;
#267 = AXIS2_PLACEMENT_3D ( 'NONE', #82, #151, #297 ) ;
#268 = CARTESIAN_POINT ( 'NONE',  ( -1.149999999999999911, 1.408343819019456028E-16, 1.700000000000007061 ) ) ;
#269 = EDGE_CURVE ( 'NONE', #117, #219, #154, .T. ) ;
#270 = DIRECTION ( 'NONE',  ( -1.000000000000000000, 1.224646799147351975E-16, 0.000000000000000000 ) ) ;
#271 = DIRECTION ( 'NONE',  ( -0.000000000000000000, -0.000000000000000000, -1.000000000000000000 ) ) ;
#272 = CIRCLE ( 'NONE', #50, 1.149999999999999911 ) ;
#273 = FACE_OUTER_BOUND ( 'NONE', #214, .T. ) ;
#274 = CARTESIAN_POINT ( 'NONE',  ( 0.000000000000000000, 0.000000000000000000, 1.500000000000000000 ) ) ;
#275 = ADVANCED_FACE ( 'NONE', ( #251 ), #129, .F. ) ;
#276 = CYLINDRICAL_SURFACE ( 'NONE', #165, 2.000000000000000000 ) ;
#277 = TOROIDAL_SURFACE ( 'NONE', #242, 1.149999999999999911, 0.2000000000000000111 ) ;
#278 = FACE_OUTER_BOUND ( 'NONE', #47, .T. ) ;
#279 = CARTESIAN_POINT ( 'NONE',  ( 0.000000000000000000, 0.000000000000000000, 1.500000000000000000 ) ) ;
#280 = EDGE_LOOP ( 'NONE', ( #162, #224 ) ) ;
#281 = CARTESIAN_POINT ( 'NONE',  ( 0.000000000000000000, 0.000000000000000000, 1.700000000000007061 ) ) ;
#282 = EDGE_CURVE ( 'NONE', #159, #55, #24, .T. ) ;
#283 = COORDINATED_UNIVERSAL_TIME_OFFSET ( 1, 0, .AHEAD. ) ;
#284 = CALENDAR_DATE ( 2022, 7, 7 ) ;
#285 = TOROIDAL_SURFACE ( 'NONE', #301, 1.149999999999999911, 0.2000000000000000111 ) ;
#286 = DIRECTION ( 'NONE',  ( 0.000000000000000000, 0.000000000000000000, 1.000000000000000000 ) ) ;
#287 = ADVANCED_FACE ( 'NONE', ( #304 ), #38, .T. ) ;
#288 = EDGE_LOOP ( 'NONE', ( #20, #76 ) ) ;
#289 = ORIENTED_EDGE ( 'NONE', *, *, #291, .T. ) ;
#290 = CIRCLE ( 'NONE', #3, 0.9499999999999999556 ) ;
#291 = EDGE_CURVE ( 'NONE', #112, #84, #124, .T. ) ;
#292 = ORIENTED_EDGE ( 'NONE', *, *, #141, .F. ) ;
#293 = CC_DESIGN_DATE_AND_TIME_ASSIGNMENT ( #96, #139, ( #5 ) ) ;
#294 = FACE_OUTER_BOUND ( 'NONE', #8, .T. ) ;
#295 = CARTESIAN_POINT ( 'NONE',  ( -0.9499999999999999556, 0.000000000000000000, 101.5000000000000000 ) ) ;
#296 = AXIS2_PLACEMENT_3D ( 'NONE', #259, #286, #56 ) ;
#297 = DIRECTION ( 'NONE',  ( 1.000000000000000000, 0.000000000000000000, -0.000000000000000000 ) ) ;
#298 = ADVANCED_FACE ( 'NONE', ( #228 ), #182, .T. ) ;
#299 = DIRECTION ( 'NONE',  ( 1.000000000000000000, 0.000000000000000000, 0.000000000000000000 ) ) ;
#300 = DIRECTION ( 'NONE',  ( -1.000000000000000000, 0.000000000000000000, 0.000000000000000000 ) ) ;
#301 = AXIS2_PLACEMENT_3D ( 'NONE', #244, #58, #83 ) ;
#302 = CC_DESIGN_APPROVAL ( #52, ( #226 ) ) ;
#303 = ORIENTED_EDGE ( 'NONE', *, *, #12, .T. ) ;
#304 = FACE_OUTER_BOUND ( 'NONE', #240, .T. ) ;
#305 = COORDINATED_UNIVERSAL_TIME_OFFSET ( 1, 0, .AHEAD. ) ;
#306 = SECURITY_CLASSIFICATION_LEVEL ( 'unclassified' ) ;
#307 = CC_DESIGN_PERSON_AND_ORGANIZATION_ASSIGNMENT ( #263, #210, ( #226 ) ) ;
ENDSEC;
END-ISO-10303-21;
