ISO-10303-21;
HEADER;
FILE_DESCRIPTION (( 'STEP AP203' ),
    '1' );
FILE_NAME ('110c.STEP',
    '2022-07-07T10:16:34',
    ( '' ),
    ( '' ),
    'SwSTEP 2.0',
    'SolidWorks 2019',
    '' );
FILE_SCHEMA (( 'CONFIG_CONTROL_DESIGN' ));
ENDSEC;

DATA;
#1 = ORIENTED_EDGE ( 'NONE', *, *, #227, .T. ) ;
#2 = DIRECTION ( 'NONE',  ( 0.000000000000000000, 0.000000000000000000, 1.000000000000000000 ) ) ;
#3 = CC_DESIGN_PERSON_AND_ORGANIZATION_ASSIGNMENT ( #296, #88, ( #230 ) ) ;
#4 = DIRECTION ( 'NONE',  ( -1.000000000000000000, 0.000000000000000000, 0.000000000000000000 ) ) ;
#5 = CYLINDRICAL_SURFACE ( 'NONE', #189, 2.600000000000000089 ) ;
#6 = EDGE_CURVE ( 'NONE', #206, #216, #285, .T. ) ;
#7 = CARTESIAN_POINT ( 'NONE',  ( 0.000000000000000000, 0.000000000000000000, 3.199999999999980638 ) ) ;
#8 = CIRCLE ( 'NONE', #237, 2.799999999999999822 ) ;
#9 = CARTESIAN_POINT ( 'NONE',  ( -5.000000000000000000, 0.000000000000000000, 3.000000000000000000 ) ) ;
#10 = APPROVAL ( #35, 'NEURÈENÝ' ) ;
#11 =( GEOMETRIC_REPRESENTATION_CONTEXT ( 3 ) GLOBAL_UNCERTAINTY_ASSIGNED_CONTEXT ( ( #231 ) ) GLOBAL_UNIT_ASSIGNED_CONTEXT ( ( #276, #205, #211 ) ) REPRESENTATION_CONTEXT ( 'NONE', 'WORKASPACE' ) );
#12 = APPROVAL_ROLE ( '' ) ;
#13 = EDGE_LOOP ( 'NONE', ( #130, #304 ) ) ;
#14 = CARTESIAN_POINT ( 'NONE',  ( 0.000000000000000000, 0.000000000000000000, 0.000000000000000000 ) ) ;
#15 = CALENDAR_DATE ( 2022, 7, 7 ) ;
#16 = AXIS2_PLACEMENT_3D ( 'NONE', #219, #28, #170 ) ;
#17 = ORIENTED_EDGE ( 'NONE', *, *, #270, .T. ) ;
#18 = PERSON_AND_ORGANIZATION_ROLE ( 'design_owner' ) ;
#19 = CC_DESIGN_APPROVAL ( #10, ( #58 ) ) ;
#20 = EDGE_LOOP ( 'NONE', ( #73, #1, #236, #42 ) ) ;
#21 = DATE_AND_TIME ( #235, #262 ) ;
#22 = DIRECTION ( 'NONE',  ( 0.000000000000000000, 0.000000000000000000, -1.000000000000000000 ) ) ;
#23 = CC_DESIGN_SECURITY_CLASSIFICATION ( #108, ( #230 ) ) ;
#24 = DIRECTION ( 'NONE',  ( -1.000000000000000000, 0.000000000000000000, 0.000000000000000000 ) ) ;
#25 = CIRCLE ( 'NONE', #241, 2.600000000000000089 ) ;
#26 = CARTESIAN_POINT ( 'NONE',  ( 0.000000000000000000, 0.000000000000000000, 3.199999999999980638 ) ) ;
#27 = EDGE_LOOP ( 'NONE', ( #68, #46, #92, #267 ) ) ;
#28 = DIRECTION ( 'NONE',  ( 0.000000000000000000, 0.000000000000000000, 1.000000000000000000 ) ) ;
#29 = DIRECTION ( 'NONE',  ( -1.000000000000000000, 1.224646799147353207E-16, 0.000000000000000000 ) ) ;
#30 = CYLINDRICAL_SURFACE ( 'NONE', #62, 5.000000000000000000 ) ;
#31 = CARTESIAN_POINT ( 'NONE',  ( 0.000000000000000000, 0.000000000000000000, 3.000000000000000000 ) ) ;
#32 = CARTESIAN_POINT ( 'NONE',  ( 0.000000000000000000, 0.000000000000000000, 3.000000000000000000 ) ) ;
#33 = DIRECTION ( 'NONE',  ( 0.000000000000000000, 0.000000000000000000, 1.000000000000000000 ) ) ;
#34 = CC_DESIGN_PERSON_AND_ORGANIZATION_ASSIGNMENT ( #165, #120, ( #108 ) ) ;
#35 = APPROVAL_STATUS ( 'not_yet_approved' ) ;
#36 = AXIS2_PLACEMENT_3D ( 'NONE', #217, #107, #156 ) ;
#37 = CC_DESIGN_APPROVAL ( #213, ( #108 ) ) ;
#38 = CALENDAR_DATE ( 2022, 7, 7 ) ;
#39 = EDGE_CURVE ( 'NONE', #216, #166, #284, .T. ) ;
#40 = DATE_AND_TIME ( #38, #140 ) ;
#41 = ORIENTED_EDGE ( 'NONE', *, *, #143, .F. ) ;
#42 = ORIENTED_EDGE ( 'NONE', *, *, #248, .F. ) ;
#43 = ORIENTED_EDGE ( 'NONE', *, *, #152, .T. ) ;
#44 = ADVANCED_BREP_SHAPE_REPRESENTATION ( '110c', ( #244, #153 ), #11 ) ;
#45 = CARTESIAN_POINT ( 'NONE',  ( 0.000000000000000000, 0.000000000000000000, 0.000000000000000000 ) ) ;
#46 = ORIENTED_EDGE ( 'NONE', *, *, #39, .F. ) ;
#47 = CIRCLE ( 'NONE', #228, 5.000000000000000000 ) ;
#48 = DIRECTION ( 'NONE',  ( 1.000000000000000000, 0.000000000000000000, -0.000000000000000000 ) ) ;
#49 = FACE_OUTER_BOUND ( 'NONE', #287, .T. ) ;
#50 = ORIENTED_EDGE ( 'NONE', *, *, #6, .T. ) ;
#51 = DIRECTION ( 'NONE',  ( 1.000000000000000000, 0.000000000000000000, 0.000000000000000000 ) ) ;
#52 = APPROVAL_PERSON_ORGANIZATION ( #234, #10, #163 ) ;
#53 = ADVANCED_FACE ( 'NONE', ( #99 ), #146, .F. ) ;
#54 = CARTESIAN_POINT ( 'NONE',  ( -2.600000000000000089, 0.000000000000000000, 1002.999999999999886 ) ) ;
#55 = PLANE ( 'NONE',  #179 ) ;
#56 = CARTESIAN_POINT ( 'NONE',  ( 5.000000000000000000, 6.123233995736766282E-16, 0.000000000000000000 ) ) ;
#57 = LOCAL_TIME ( 12, 16, 34.00000000000000000, #137 ) ;
#58 = PRODUCT_DEFINITION ( 'NEZNÁMÝ', '', #230, #298 ) ;
#59 = FACE_OUTER_BOUND ( 'NONE', #297, .T. ) ;
#60 = DATE_AND_TIME ( #15, #251 ) ;
#61 = DIRECTION ( 'NONE',  ( 1.000000000000000000, 0.000000000000000000, 0.000000000000000000 ) ) ;
#62 = AXIS2_PLACEMENT_3D ( 'NONE', #133, #201, #225 ) ;
#63 = VERTEX_POINT ( 'NONE', #196 ) ;
#64 = APPROVAL_ROLE ( '' ) ;
#65 = ORIENTED_EDGE ( 'NONE', *, *, #143, .T. ) ;
#66 = COORDINATED_UNIVERSAL_TIME_OFFSET ( 1, 0, .AHEAD. ) ;
#67 = AXIS2_PLACEMENT_3D ( 'NONE', #171, #264, #22 ) ;
#68 = ORIENTED_EDGE ( 'NONE', *, *, #270, .F. ) ;
#69 = AXIS2_PLACEMENT_3D ( 'NONE', #224, #84, #81 ) ;
#70 = LOCAL_TIME ( 12, 16, 34.00000000000000000, #299 ) ;
#71 = EDGE_CURVE ( 'NONE', #63, #94, #128, .T. ) ;
#72 = DIRECTION ( 'NONE',  ( -0.000000000000000000, -0.000000000000000000, -1.000000000000000000 ) ) ;
#73 = ORIENTED_EDGE ( 'NONE', *, *, #208, .F. ) ;
#74 = DIRECTION ( 'NONE',  ( 0.000000000000000000, 0.000000000000000000, 1.000000000000000000 ) ) ;
#75 = VECTOR ( 'NONE', #193, 1000.000000000000000 ) ;
#76 = EDGE_CURVE ( 'NONE', #245, #206, #106, .T. ) ;
#77 = DIRECTION ( 'NONE',  ( 1.000000000000000000, 0.000000000000000000, 0.000000000000000000 ) ) ;
#78 = APPROVAL_DATE_TIME ( #21, #213 ) ;
#79 = ORIENTED_EDGE ( 'NONE', *, *, #232, .T. ) ;
#80 = FACE_OUTER_BOUND ( 'NONE', #27, .T. ) ;
#81 = DIRECTION ( 'NONE',  ( 1.000000000000000000, 0.000000000000000000, 0.000000000000000000 ) ) ;
#82 = CARTESIAN_POINT ( 'NONE',  ( -2.600000000000000089, 0.000000000000000000, 3.199999999999980638 ) ) ;
#83 = DIRECTION ( 'NONE',  ( 1.000000000000000000, 0.000000000000000000, 0.000000000000000000 ) ) ;
#84 = DIRECTION ( 'NONE',  ( 0.000000000000000000, 0.000000000000000000, 1.000000000000000000 ) ) ;
#85 = VECTOR ( 'NONE', #288, 1000.000000000000000 ) ;
#86 = PRODUCT ( '110c', '110c', '', ( #115 ) ) ;
#87 = APPLICATION_PROTOCOL_DEFINITION ( 'international standard', 'config_control_design', 1994, #100 ) ;
#88 = PERSON_AND_ORGANIZATION_ROLE ( 'creator' ) ;
#89 = CC_DESIGN_PERSON_AND_ORGANIZATION_ASSIGNMENT ( #185, #141, ( #230 ) ) ;
#90 = ORIENTED_EDGE ( 'NONE', *, *, #174, .T. ) ;
#91 = DATE_AND_TIME ( #207, #70 ) ;
#92 = ORIENTED_EDGE ( 'NONE', *, *, #97, .T. ) ;
#93 = PERSON_AND_ORGANIZATION ( #161, #116 ) ;
#94 = VERTEX_POINT ( 'NONE', #176 ) ;
#95 = PERSON_AND_ORGANIZATION ( #161, #116 ) ;
#96 = EDGE_LOOP ( 'NONE', ( #127, #209 ) ) ;
#97 = EDGE_CURVE ( 'NONE', #216, #94, #191, .T. ) ;
#98 = AXIS2_PLACEMENT_3D ( 'NONE', #240, #242, #24 ) ;
#99 = FACE_OUTER_BOUND ( 'NONE', #197, .T. ) ;
#100 = APPLICATION_CONTEXT ( 'configuration controlled 3d designs of mechanical parts and assemblies' ) ;
#101 = APPROVAL_PERSON_ORGANIZATION ( #229, #124, #12 ) ;
#102 = VERTEX_POINT ( 'NONE', #123 ) ;
#103 = PRODUCT_DEFINITION_SHAPE ( 'NONE', 'NONE',  #58 ) ;
#104 = DIRECTION ( 'NONE',  ( 0.000000000000000000, 0.000000000000000000, 1.000000000000000000 ) ) ;
#105 = ORIENTED_EDGE ( 'NONE', *, *, #227, .F. ) ;
#106 = CIRCLE ( 'NONE', #239, 2.600000000000000089 ) ;
#107 = DIRECTION ( 'NONE',  ( 0.000000000000000000, 0.000000000000000000, 1.000000000000000000 ) ) ;
#108 = SECURITY_CLASSIFICATION ( '', '', #259 ) ;
#109 = LINE ( 'NONE', #294, #85 ) ;
#110 = ADVANCED_FACE ( 'NONE', ( #49 ), #214, .T. ) ;
#111 = FACE_BOUND ( 'NONE', #96, .T. ) ;
#112 = LINE ( 'NONE', #253, #286 ) ;
#113 = CARTESIAN_POINT ( 'NONE',  ( 2.600000000000000089, 3.184081677783118191E-16, 3.199999999999980638 ) ) ;
#114 = DIRECTION ( 'NONE',  ( 0.000000000000000000, 0.000000000000000000, 1.000000000000000000 ) ) ;
#115 = MECHANICAL_CONTEXT ( 'NONE', #100, 'mechanical' ) ;
#116 = ORGANIZATION ( 'NEURÈENÝ', 'NEURÈENÝ', '' ) ;
#117 = CC_DESIGN_PERSON_AND_ORGANIZATION_ASSIGNMENT ( #95, #233, ( #58 ) ) ;
#118 = COORDINATED_UNIVERSAL_TIME_OFFSET ( 1, 0, .AHEAD. ) ;
#119 = EDGE_LOOP ( 'NONE', ( #151, #17, #184, #258 ) ) ;
#120 = PERSON_AND_ORGANIZATION_ROLE ( 'classification_officer' ) ;
#121 = DATE_TIME_ROLE ( 'creation_date' ) ;
#122 = CC_DESIGN_DATE_AND_TIME_ASSIGNMENT ( #91, #188, ( #108 ) ) ;
#123 = CARTESIAN_POINT ( 'NONE',  ( -5.000000000000000000, 0.000000000000000000, 0.000000000000000000 ) ) ;
#124 = APPROVAL ( #190, 'NEURÈENÝ' ) ;
#125 = CARTESIAN_POINT ( 'NONE',  ( 0.000000000000000000, 0.000000000000000000, 0.000000000000000000 ) ) ;
#126 = PLANE ( 'NONE',  #36 ) ;
#127 = ORIENTED_EDGE ( 'NONE', *, *, #199, .T. ) ;
#128 = CIRCLE ( 'NONE', #195, 2.799999999999999822 ) ;
#129 = AXIS2_PLACEMENT_3D ( 'NONE', #158, #114, #275 ) ;
#130 = ORIENTED_EDGE ( 'NONE', *, *, #76, .T. ) ;
#131 = EDGE_CURVE ( 'NONE', #307, #102, #47, .T. ) ;
#132 = DIRECTION ( 'NONE',  ( 0.000000000000000000, 0.000000000000000000, 1.000000000000000000 ) ) ;
#133 = CARTESIAN_POINT ( 'NONE',  ( 0.000000000000000000, 0.000000000000000000, 3.000000000000000000 ) ) ;
#134 = PRODUCT_RELATED_PRODUCT_CATEGORY ( 'detail', '', ( #86 ) ) ;
#135 = CARTESIAN_POINT ( 'NONE',  ( -5.000000000000000000, 0.000000000000000000, 3.000000000000000000 ) ) ;
#136 = DIRECTION ( 'NONE',  ( 1.000000000000000000, 0.000000000000000000, 0.000000000000000000 ) ) ;
#137 = COORDINATED_UNIVERSAL_TIME_OFFSET ( 1, 0, .AHEAD. ) ;
#138 = AXIS2_PLACEMENT_3D ( 'NONE', #283, #74, #265 ) ;
#139 = DATE_AND_TIME ( #254, #57 ) ;
#140 = LOCAL_TIME ( 12, 16, 34.00000000000000000, #118 ) ;
#141 = PERSON_AND_ORGANIZATION_ROLE ( 'design_supplier' ) ;
#142 = APPROVAL_DATE_TIME ( #40, #124 ) ;
#143 = EDGE_CURVE ( 'NONE', #102, #307, #268, .T. ) ;
#144 = ORIENTED_EDGE ( 'NONE', *, *, #248, .T. ) ;
#145 = AXIS2_PLACEMENT_3D ( 'NONE', #157, #226, #4 ) ;
#146 = PLANE ( 'NONE',  #187 ) ;
#147 = CC_DESIGN_PERSON_AND_ORGANIZATION_ASSIGNMENT ( #183, #18, ( #86 ) ) ;
#148 = ORIENTED_EDGE ( 'NONE', *, *, #6, .F. ) ;
#149 = DIRECTION ( 'NONE',  ( 1.000000000000000000, 0.000000000000000000, 0.000000000000000000 ) ) ;
#150 = FACE_OUTER_BOUND ( 'NONE', #13, .T. ) ;
#151 = ORIENTED_EDGE ( 'NONE', *, *, #152, .F. ) ;
#152 = EDGE_CURVE ( 'NONE', #166, #216, #305, .T. ) ;
#153 = AXIS2_PLACEMENT_3D ( 'NONE', #14, #204, #61 ) ;
#154 = CARTESIAN_POINT ( 'NONE',  ( 0.000000000000000000, 0.000000000000000000, 1002.999999999999886 ) ) ;
#155 = APPROVAL_PERSON_ORGANIZATION ( #93, #213, #64 ) ;
#156 = DIRECTION ( 'NONE',  ( 1.000000000000000000, 0.000000000000000000, -0.000000000000000000 ) ) ;
#157 = CARTESIAN_POINT ( 'NONE',  ( 0.000000000000000000, 0.000000000000000000, 3.000000000000000000 ) ) ;
#158 = CARTESIAN_POINT ( 'NONE',  ( 0.000000000000000000, 0.000000000000000000, 3.199999999999980638 ) ) ;
#159 = VECTOR ( 'NONE', #247, 1000.000000000000000 ) ;
#160 = APPROVAL_DATE_TIME ( #60, #10 ) ;
#161 = PERSON ( 'NEURÈENÝ', 'NEURÈENÝ', 'NEURÈENÝ', ('NEURÈENÝ'), ('NEURÈENÝ'), ('NEURÈENÝ') ) ;
#162 = AXIS2_PLACEMENT_3D ( 'NONE', #177, #290, #29 ) ;
#163 = APPROVAL_ROLE ( '' ) ;
#164 = ADVANCED_FACE ( 'NONE', ( #150 ), #126, .T. ) ;
#165 = PERSON_AND_ORGANIZATION ( #161, #116 ) ;
#166 = VERTEX_POINT ( 'NONE', #82 ) ;
#167 = ORIENTED_EDGE ( 'NONE', *, *, #131, .F. ) ;
#168 = CARTESIAN_POINT ( 'NONE',  ( 2.600000000000000089, 3.184081677783118191E-16, 1002.999999999999886 ) ) ;
#169 = ADVANCED_FACE ( 'NONE', ( #80 ), #220, .F. ) ;
#170 = DIRECTION ( 'NONE',  ( 1.000000000000000000, 0.000000000000000000, 0.000000000000000000 ) ) ;
#171 = CARTESIAN_POINT ( 'NONE',  ( 2.799999999999999822, 0.000000000000000000, 3.199999999999980638 ) ) ;
#172 = TOROIDAL_SURFACE ( 'NONE', #261, 2.799999999999999822, 0.2000000000000000111 ) ;
#173 = DIRECTION ( 'NONE',  ( 1.000000000000000000, 0.000000000000000000, 0.000000000000000000 ) ) ;
#174 = EDGE_CURVE ( 'NONE', #245, #166, #112, .T. ) ;
#175 = SHAPE_DEFINITION_REPRESENTATION ( #103, #44 ) ;
#176 = CARTESIAN_POINT ( 'NONE',  ( 2.799999999999999822, 0.000000000000000000, 2.999999999999990674 ) ) ;
#177 = CARTESIAN_POINT ( 'NONE',  ( -2.799999999999999822, 3.429011037612588783E-16, 3.199999999999980638 ) ) ;
#178 = AXIS2_PLACEMENT_3D ( 'NONE', #26, #2, #173 ) ;
#179 = AXIS2_PLACEMENT_3D ( 'NONE', #31, #249, #293 ) ;
#180 = DIRECTION ( 'NONE',  ( 0.000000000000000000, 0.000000000000000000, 1.000000000000000000 ) ) ;
#181 = CARTESIAN_POINT ( 'NONE',  ( 0.000000000000000000, 0.000000000000000000, 1002.999999999999886 ) ) ;
#182 = DIRECTION ( 'NONE',  ( -0.000000000000000000, -0.000000000000000000, -1.000000000000000000 ) ) ;
#183 = PERSON_AND_ORGANIZATION ( #161, #116 ) ;
#184 = ORIENTED_EDGE ( 'NONE', *, *, #199, .F. ) ;
#185 = PERSON_AND_ORGANIZATION ( #161, #116 ) ;
#186 = VERTEX_POINT ( 'NONE', #198 ) ;
#187 = AXIS2_PLACEMENT_3D ( 'NONE', #45, #238, #48 ) ;
#188 = DATE_TIME_ROLE ( 'classification_date' ) ;
#189 = AXIS2_PLACEMENT_3D ( 'NONE', #181, #200, #274 ) ;
#190 = APPROVAL_STATUS ( 'not_yet_approved' ) ;
#191 = CIRCLE ( 'NONE', #67, 0.2000000000000000944 ) ;
#192 = ORIENTED_EDGE ( 'NONE', *, *, #208, .T. ) ;
#193 = DIRECTION ( 'NONE',  ( -0.000000000000000000, -0.000000000000000000, -1.000000000000000000 ) ) ;
#194 = DIRECTION ( 'NONE',  ( 1.000000000000000000, 0.000000000000000000, 0.000000000000000000 ) ) ;
#195 = AXIS2_PLACEMENT_3D ( 'NONE', #243, #72, #149 ) ;
#196 = CARTESIAN_POINT ( 'NONE',  ( -2.799999999999999822, 3.429011037612589276E-16, 2.999999999999990674 ) ) ;
#197 = EDGE_LOOP ( 'NONE', ( #41, #167 ) ) ;
#198 = CARTESIAN_POINT ( 'NONE',  ( 5.000000000000000000, 6.123233995736766282E-16, 3.000000000000000000 ) ) ;
#199 = EDGE_CURVE ( 'NONE', #94, #63, #8, .T. ) ;
#200 = DIRECTION ( 'NONE',  ( -0.000000000000000000, -0.000000000000000000, -1.000000000000000000 ) ) ;
#201 = DIRECTION ( 'NONE',  ( -0.000000000000000000, -0.000000000000000000, -1.000000000000000000 ) ) ;
#202 = DIRECTION ( 'NONE',  ( 1.000000000000000000, 0.000000000000000000, 0.000000000000000000 ) ) ;
#203 = CARTESIAN_POINT ( 'NONE',  ( 0.000000000000000000, 0.000000000000000000, 3.000000000000000000 ) ) ;
#204 = DIRECTION ( 'NONE',  ( 0.000000000000000000, 0.000000000000000000, 1.000000000000000000 ) ) ;
#205 =( NAMED_UNIT ( * ) PLANE_ANGLE_UNIT ( ) SI_UNIT ( $, .RADIAN. ) );
#206 = VERTEX_POINT ( 'NONE', #289 ) ;
#207 = CALENDAR_DATE ( 2022, 7, 7 ) ;
#208 = EDGE_CURVE ( 'NONE', #186, #306, #301, .T. ) ;
#209 = ORIENTED_EDGE ( 'NONE', *, *, #71, .T. ) ;
#210 = CLOSED_SHELL ( 'NONE', ( #255, #110, #295, #222, #218, #53, #282, #164, #169 ) ) ;
#211 =( NAMED_UNIT ( * ) SI_UNIT ( $, .STERADIAN. ) SOLID_ANGLE_UNIT ( ) );
#212 = ORIENTED_EDGE ( 'NONE', *, *, #279, .F. ) ;
#213 = APPROVAL ( #277, 'NEURÈENÝ' ) ;
#214 = CYLINDRICAL_SURFACE ( 'NONE', #98, 2.600000000000000089 ) ;
#215 = CIRCLE ( 'NONE', #69, 5.000000000000000000 ) ;
#216 = VERTEX_POINT ( 'NONE', #113 ) ;
#217 = CARTESIAN_POINT ( 'NONE',  ( 0.000000000000000000, 0.000000000000000000, 1002.999999999999886 ) ) ;
#218 = ADVANCED_FACE ( 'NONE', ( #111, #59 ), #55, .T. ) ;
#219 = CARTESIAN_POINT ( 'NONE',  ( 0.000000000000000000, 0.000000000000000000, 3.199999999999980638 ) ) ;
#220 = TOROIDAL_SURFACE ( 'NONE', #129, 2.799999999999999822, 0.2000000000000000111 ) ;
#221 = FACE_OUTER_BOUND ( 'NONE', #302, .T. ) ;
#222 = ADVANCED_FACE ( 'NONE', ( #221 ), #269, .T. ) ;
#223 = FACE_OUTER_BOUND ( 'NONE', #280, .T. ) ;
#224 = CARTESIAN_POINT ( 'NONE',  ( 0.000000000000000000, 0.000000000000000000, 3.000000000000000000 ) ) ;
#225 = DIRECTION ( 'NONE',  ( -1.000000000000000000, 0.000000000000000000, 0.000000000000000000 ) ) ;
#226 = DIRECTION ( 'NONE',  ( -0.000000000000000000, -0.000000000000000000, -1.000000000000000000 ) ) ;
#227 = EDGE_CURVE ( 'NONE', #186, #307, #109, .T. ) ;
#228 = AXIS2_PLACEMENT_3D ( 'NONE', #125, #104, #194 ) ;
#229 = PERSON_AND_ORGANIZATION ( #161, #116 ) ;
#230 = PRODUCT_DEFINITION_FORMATION_WITH_SPECIFIED_SOURCE ( 'LIBOVOLNÝ', '', #86, .NOT_KNOWN. ) ;
#231 = UNCERTAINTY_MEASURE_WITH_UNIT (LENGTH_MEASURE( 1.000000000000000082E-05 ), #276, 'distance_accuracy_value', 'NONE');
#232 = EDGE_CURVE ( 'NONE', #306, #186, #215, .T. ) ;
#233 = PERSON_AND_ORGANIZATION_ROLE ( 'creator' ) ;
#234 = PERSON_AND_ORGANIZATION ( #161, #116 ) ;
#235 = CALENDAR_DATE ( 2022, 7, 7 ) ;
#236 = ORIENTED_EDGE ( 'NONE', *, *, #131, .T. ) ;
#237 = AXIS2_PLACEMENT_3D ( 'NONE', #32, #252, #136 ) ;
#238 = DIRECTION ( 'NONE',  ( 0.000000000000000000, 0.000000000000000000, 1.000000000000000000 ) ) ;
#239 = AXIS2_PLACEMENT_3D ( 'NONE', #266, #263, #77 ) ;
#240 = CARTESIAN_POINT ( 'NONE',  ( 0.000000000000000000, 0.000000000000000000, 1002.999999999999886 ) ) ;
#241 = AXIS2_PLACEMENT_3D ( 'NONE', #154, #132, #202 ) ;
#242 = DIRECTION ( 'NONE',  ( -0.000000000000000000, -0.000000000000000000, -1.000000000000000000 ) ) ;
#243 = CARTESIAN_POINT ( 'NONE',  ( 0.000000000000000000, 0.000000000000000000, 3.000000000000000000 ) ) ;
#244 = MANIFOLD_SOLID_BREP ( 'Zaoblit1', #210 ) ;
#245 = VERTEX_POINT ( 'NONE', #54 ) ;
#246 = CIRCLE ( 'NONE', #162, 0.2000000000000000944 ) ;
#247 = DIRECTION ( 'NONE',  ( -0.000000000000000000, -0.000000000000000000, -1.000000000000000000 ) ) ;
#248 = EDGE_CURVE ( 'NONE', #306, #102, #273, .T. ) ;
#249 = DIRECTION ( 'NONE',  ( 0.000000000000000000, 0.000000000000000000, 1.000000000000000000 ) ) ;
#250 = FACE_OUTER_BOUND ( 'NONE', #119, .T. ) ;
#251 = LOCAL_TIME ( 12, 16, 34.00000000000000000, #257 ) ;
#252 = DIRECTION ( 'NONE',  ( -0.000000000000000000, -0.000000000000000000, -1.000000000000000000 ) ) ;
#253 = CARTESIAN_POINT ( 'NONE',  ( -2.600000000000000089, 0.000000000000000000, 1002.999999999999886 ) ) ;
#254 = CALENDAR_DATE ( 2022, 7, 7 ) ;
#255 = ADVANCED_FACE ( 'NONE', ( #250 ), #172, .F. ) ;
#256 = AXIS2_PLACEMENT_3D ( 'NONE', #203, #33, #83 ) ;
#257 = COORDINATED_UNIVERSAL_TIME_OFFSET ( 1, 0, .AHEAD. ) ;
#258 = ORIENTED_EDGE ( 'NONE', *, *, #97, .F. ) ;
#259 = SECURITY_CLASSIFICATION_LEVEL ( 'unclassified' ) ;
#260 = ORIENTED_EDGE ( 'NONE', *, *, #232, .F. ) ;
#261 = AXIS2_PLACEMENT_3D ( 'NONE', #7, #180, #51 ) ;
#262 = LOCAL_TIME ( 12, 16, 34.00000000000000000, #66 ) ;
#263 = DIRECTION ( 'NONE',  ( 0.000000000000000000, 0.000000000000000000, 1.000000000000000000 ) ) ;
#264 = DIRECTION ( 'NONE',  ( 0.000000000000000000, -1.000000000000000000, 0.000000000000000000 ) ) ;
#265 = DIRECTION ( 'NONE',  ( 1.000000000000000000, 0.000000000000000000, 0.000000000000000000 ) ) ;
#266 = CARTESIAN_POINT ( 'NONE',  ( 0.000000000000000000, 0.000000000000000000, 1002.999999999999886 ) ) ;
#267 = ORIENTED_EDGE ( 'NONE', *, *, #71, .F. ) ;
#268 = CIRCLE ( 'NONE', #138, 5.000000000000000000 ) ;
#269 = CYLINDRICAL_SURFACE ( 'NONE', #145, 5.000000000000000000 ) ;
#270 = EDGE_CURVE ( 'NONE', #166, #63, #246, .T. ) ;
#271 = CC_DESIGN_APPROVAL ( #124, ( #230 ) ) ;
#272 = FACE_OUTER_BOUND ( 'NONE', #20, .T. ) ;
#273 = LINE ( 'NONE', #135, #159 ) ;
#274 = DIRECTION ( 'NONE',  ( -1.000000000000000000, 0.000000000000000000, 0.000000000000000000 ) ) ;
#275 = DIRECTION ( 'NONE',  ( 1.000000000000000000, 0.000000000000000000, 0.000000000000000000 ) ) ;
#276 =( LENGTH_UNIT ( ) NAMED_UNIT ( * ) SI_UNIT ( .MILLI., .METRE. ) );
#277 = APPROVAL_STATUS ( 'not_yet_approved' ) ;
#278 = ORIENTED_EDGE ( 'NONE', *, *, #39, .T. ) ;
#279 = EDGE_CURVE ( 'NONE', #206, #245, #25, .T. ) ;
#280 = EDGE_LOOP ( 'NONE', ( #148, #281, #90, #43 ) ) ;
#281 = ORIENTED_EDGE ( 'NONE', *, *, #76, .F. ) ;
#282 = ADVANCED_FACE ( 'NONE', ( #223 ), #5, .T. ) ;
#283 = CARTESIAN_POINT ( 'NONE',  ( 0.000000000000000000, 0.000000000000000000, 0.000000000000000000 ) ) ;
#284 = CIRCLE ( 'NONE', #16, 2.600000000000000089 ) ;
#285 = LINE ( 'NONE', #168, #75 ) ;
#286 = VECTOR ( 'NONE', #182, 1000.000000000000000 ) ;
#287 = EDGE_LOOP ( 'NONE', ( #212, #50, #278, #300 ) ) ;
#288 = DIRECTION ( 'NONE',  ( -0.000000000000000000, -0.000000000000000000, -1.000000000000000000 ) ) ;
#289 = CARTESIAN_POINT ( 'NONE',  ( 2.600000000000000089, 3.184081677783118191E-16, 1002.999999999999886 ) ) ;
#290 = DIRECTION ( 'NONE',  ( 1.224646799147353207E-16, 1.000000000000000000, -0.000000000000000000 ) ) ;
#291 = CC_DESIGN_DATE_AND_TIME_ASSIGNMENT ( #139, #121, ( #58 ) ) ;
#292 = APPLICATION_CONTEXT ( 'configuration controlled 3d designs of mechanical parts and assemblies' ) ;
#293 = DIRECTION ( 'NONE',  ( 1.000000000000000000, 0.000000000000000000, -0.000000000000000000 ) ) ;
#294 = CARTESIAN_POINT ( 'NONE',  ( 5.000000000000000000, 6.123233995736766282E-16, 3.000000000000000000 ) ) ;
#295 = ADVANCED_FACE ( 'NONE', ( #272 ), #30, .T. ) ;
#296 = PERSON_AND_ORGANIZATION ( #161, #116 ) ;
#297 = EDGE_LOOP ( 'NONE', ( #79, #192 ) ) ;
#298 = DESIGN_CONTEXT ( 'detailed design', #292, 'design' ) ;
#299 = COORDINATED_UNIVERSAL_TIME_OFFSET ( 1, 0, .AHEAD. ) ;
#300 = ORIENTED_EDGE ( 'NONE', *, *, #174, .F. ) ;
#301 = CIRCLE ( 'NONE', #256, 5.000000000000000000 ) ;
#302 = EDGE_LOOP ( 'NONE', ( #105, #260, #144, #65 ) ) ;
#303 = APPLICATION_PROTOCOL_DEFINITION ( 'international standard', 'config_control_design', 1994, #292 ) ;
#304 = ORIENTED_EDGE ( 'NONE', *, *, #279, .T. ) ;
#305 = CIRCLE ( 'NONE', #178, 2.600000000000000089 ) ;
#306 = VERTEX_POINT ( 'NONE', #9 ) ;
#307 = VERTEX_POINT ( 'NONE', #56 ) ;
ENDSEC;
END-ISO-10303-21;
