ISO-10303-21;
HEADER;
FILE_DESCRIPTION (( 'STEP AP203' ),
    '1' );
FILE_NAME ('b794.STEP',
    '2022-07-07T09:35:11',
    ( '' ),
    ( '' ),
    'SwSTEP 2.0',
    'SolidWorks 2019',
    '' );
FILE_SCHEMA (( 'CONFIG_CONTROL_DESIGN' ));
ENDSEC;

DATA;
#1 = PERSON_AND_ORGANIZATION_ROLE ( 'design_owner' ) ;
#2 = PERSON_AND_ORGANIZATION_ROLE ( 'classification_officer' ) ;
#3 = AXIS2_PLACEMENT_3D ( 'NONE', #62, #187, #65 ) ;
#4 = EDGE_LOOP ( 'NONE', ( #34, #130, #294, #196 ) ) ;
#5 = CARTESIAN_POINT ( 'NONE',  ( -9.199999999999999289, 1.126675055215564822E-15, 6.999999999999992006 ) ) ;
#6 = ORIENTED_EDGE ( 'NONE', *, *, #41, .T. ) ;
#7 = AXIS2_PLACEMENT_3D ( 'NONE', #266, #79, #102 ) ;
#8 = APPROVAL_ROLE ( '' ) ;
#9 = ORIENTED_EDGE ( 'NONE', *, *, #88, .T. ) ;
#10 = COORDINATED_UNIVERSAL_TIME_OFFSET ( 1, 0, .AHEAD. ) ;
#11 = ORIENTED_EDGE ( 'NONE', *, *, #254, .T. ) ;
#12 = CARTESIAN_POINT ( 'NONE',  ( 9.000000000000000000, 1.102182119232617714E-15, 7.199999999999984190 ) ) ;
#13 = EDGE_CURVE ( 'NONE', #29, #32, #292, .T. ) ;
#14 = DIRECTION ( 'NONE',  ( -0.000000000000000000, -0.000000000000000000, -1.000000000000000000 ) ) ;
#15 = PLANE ( 'NONE',  #235 ) ;
#16 = DIRECTION ( 'NONE',  ( 1.000000000000000000, 0.000000000000000000, 0.000000000000000000 ) ) ;
#17 = ORIENTED_EDGE ( 'NONE', *, *, #19, .F. ) ;
#18 = CARTESIAN_POINT ( 'NONE',  ( 0.000000000000000000, 0.000000000000000000, 7.199999999999984190 ) ) ;
#19 = EDGE_CURVE ( 'NONE', #265, #217, #190, .T. ) ;
#20 = CARTESIAN_POINT ( 'NONE',  ( 0.000000000000000000, 0.000000000000000000, 7.000000000000000000 ) ) ;
#21 = EDGE_CURVE ( 'NONE', #39, #77, #84, .T. ) ;
#22 = PERSON_AND_ORGANIZATION ( #73, #290 ) ;
#23 = TOROIDAL_SURFACE ( 'NONE', #31, 9.199999999999999289, 0.2000000000000000111 ) ;
#24 = DIRECTION ( 'NONE',  ( 0.000000000000000000, 0.000000000000000000, -1.000000000000000000 ) ) ;
#25 = MECHANICAL_CONTEXT ( 'NONE', #232, 'mechanical' ) ;
#26 = EDGE_LOOP ( 'NONE', ( #201, #142, #228, #100 ) ) ;
#27 = APPROVAL_STATUS ( 'not_yet_approved' ) ;
#28 = APPROVAL_DATE_TIME ( #180, #231 ) ;
#29 = VERTEX_POINT ( 'NONE', #127 ) ;
#30 = AXIS2_PLACEMENT_3D ( 'NONE', #83, #218, #272 ) ;
#31 = AXIS2_PLACEMENT_3D ( 'NONE', #256, #64, #40 ) ;
#32 = VERTEX_POINT ( 'NONE', #12 ) ;
#33 = ADVANCED_FACE ( 'NONE', ( #181 ), #269, .F. ) ;
#34 = ORIENTED_EDGE ( 'NONE', *, *, #21, .F. ) ;
#35 = DIRECTION ( 'NONE',  ( -0.000000000000000000, -0.000000000000000000, -1.000000000000000000 ) ) ;
#36 = CYLINDRICAL_SURFACE ( 'NONE', #134, 12.00000000000000178 ) ;
#37 = APPROVAL ( #98, 'NEURÈENÝ' ) ;
#38 = PLANE ( 'NONE',  #91 ) ;
#39 = VERTEX_POINT ( 'NONE', #248 ) ;
#40 = DIRECTION ( 'NONE',  ( 1.000000000000000000, 0.000000000000000000, 0.000000000000000000 ) ) ;
#41 = EDGE_CURVE ( 'NONE', #77, #66, #96, .T. ) ;
#42 = AXIS2_PLACEMENT_3D ( 'NONE', #156, #264, #24 ) ;
#43 = DIRECTION ( 'NONE',  ( -0.000000000000000000, -0.000000000000000000, -1.000000000000000000 ) ) ;
#44 = ORIENTED_EDGE ( 'NONE', *, *, #152, .T. ) ;
#45 = DIRECTION ( 'NONE',  ( 1.000000000000000000, 0.000000000000000000, 0.000000000000000000 ) ) ;
#46 = APPROVAL_DATE_TIME ( #97, #78 ) ;
#47 = VECTOR ( 'NONE', #186, 1000.000000000000000 ) ;
#48 =( NAMED_UNIT ( * ) PLANE_ANGLE_UNIT ( ) SI_UNIT ( $, .RADIAN. ) );
#49 = EDGE_LOOP ( 'NONE', ( #203, #199 ) ) ;
#50 = AXIS2_PLACEMENT_3D ( 'NONE', #183, #104, #296 ) ;
#51 = SECURITY_CLASSIFICATION ( '', '', #286 ) ;
#52 = DIRECTION ( 'NONE',  ( 1.224646799147353207E-16, 1.000000000000000000, -0.000000000000000000 ) ) ;
#53 = DESIGN_CONTEXT ( 'detailed design', #291, 'design' ) ;
#54 = PRODUCT ( 'b794', 'b794', '', ( #25 ) ) ;
#55 = FACE_OUTER_BOUND ( 'NONE', #4, .T. ) ;
#56 = CARTESIAN_POINT ( 'NONE',  ( 0.000000000000000000, 0.000000000000000000, 7.199999999999984190 ) ) ;
#57 = EDGE_CURVE ( 'NONE', #32, #39, #304, .T. ) ;
#58 = ORIENTED_EDGE ( 'NONE', *, *, #299, .T. ) ;
#59 = AXIS2_PLACEMENT_3D ( 'NONE', #279, #89, #117 ) ;
#60 = CARTESIAN_POINT ( 'NONE',  ( 0.000000000000000000, 0.000000000000000000, 7.000000000000000000 ) ) ;
#61 = CARTESIAN_POINT ( 'NONE',  ( 12.00000000000000178, 1.469576158976824144E-15, 0.000000000000000000 ) ) ;
#62 = CARTESIAN_POINT ( 'NONE',  ( 0.000000000000000000, 0.000000000000000000, 7.000000000000000000 ) ) ;
#63 = AXIS2_PLACEMENT_3D ( 'NONE', #251, #43, #225 ) ;
#64 = DIRECTION ( 'NONE',  ( 0.000000000000000000, 0.000000000000000000, 1.000000000000000000 ) ) ;
#65 = DIRECTION ( 'NONE',  ( 1.000000000000000000, 0.000000000000000000, 0.000000000000000000 ) ) ;
#66 = VERTEX_POINT ( 'NONE', #242 ) ;
#67 = CARTESIAN_POINT ( 'NONE',  ( 0.000000000000000000, 0.000000000000000000, 1006.999999999999886 ) ) ;
#68 = PRODUCT_DEFINITION_FORMATION_WITH_SPECIFIED_SOURCE ( 'LIBOVOLNÝ', '', #54, .NOT_KNOWN. ) ;
#69 = DATE_AND_TIME ( #95, #124 ) ;
#70 = PERSON_AND_ORGANIZATION ( #73, #290 ) ;
#71 = CARTESIAN_POINT ( 'NONE',  ( -9.000000000000000000, 0.000000000000000000, 1006.999999999999886 ) ) ;
#72 = COORDINATED_UNIVERSAL_TIME_OFFSET ( 1, 0, .AHEAD. ) ;
#73 = PERSON ( 'NEURÈENÝ', 'NEURÈENÝ', 'NEURÈENÝ', ('NEURÈENÝ'), ('NEURÈENÝ'), ('NEURÈENÝ') ) ;
#74 = EDGE_CURVE ( 'NONE', #217, #265, #158, .T. ) ;
#75 = DATE_AND_TIME ( #167, #109 ) ;
#76 = ORIENTED_EDGE ( 'NONE', *, *, #268, .F. ) ;
#77 = VERTEX_POINT ( 'NONE', #5 ) ;
#78 = APPROVAL ( #307, 'NEURÈENÝ' ) ;
#79 = DIRECTION ( 'NONE',  ( -0.000000000000000000, -0.000000000000000000, -1.000000000000000000 ) ) ;
#80 = UNCERTAINTY_MEASURE_WITH_UNIT (LENGTH_MEASURE( 1.000000000000000082E-05 ), #169, 'distance_accuracy_value', 'NONE');
#81 = VERTEX_POINT ( 'NONE', #177 ) ;
#82 = DIRECTION ( 'NONE',  ( -0.000000000000000000, -0.000000000000000000, -1.000000000000000000 ) ) ;
#83 = CARTESIAN_POINT ( 'NONE',  ( 0.000000000000000000, 0.000000000000000000, 0.000000000000000000 ) ) ;
#84 = CIRCLE ( 'NONE', #300, 0.2000000000000005107 ) ;
#85 = ADVANCED_FACE ( 'NONE', ( #55 ), #197, .F. ) ;
#86 = DIRECTION ( 'NONE',  ( 1.000000000000000000, 0.000000000000000000, 0.000000000000000000 ) ) ;
#87 = DIRECTION ( 'NONE',  ( -1.000000000000000000, 0.000000000000000000, 0.000000000000000000 ) ) ;
#88 = EDGE_CURVE ( 'NONE', #66, #77, #220, .T. ) ;
#89 = DIRECTION ( 'NONE',  ( 0.000000000000000000, 0.000000000000000000, 1.000000000000000000 ) ) ;
#90 = AXIS2_PLACEMENT_3D ( 'NONE', #60, #14, #135 ) ;
#91 = AXIS2_PLACEMENT_3D ( 'NONE', #208, #137, #165 ) ;
#92 = FACE_OUTER_BOUND ( 'NONE', #223, .T. ) ;
#93 = ORIENTED_EDGE ( 'NONE', *, *, #121, .F. ) ;
#94 = CYLINDRICAL_SURFACE ( 'NONE', #262, 12.00000000000000178 ) ;
#95 = CALENDAR_DATE ( 2022, 7, 7 ) ;
#96 = CIRCLE ( 'NONE', #7, 9.199999999999999289 ) ;
#97 = DATE_AND_TIME ( #146, #192 ) ;
#98 = APPROVAL_STATUS ( 'not_yet_approved' ) ;
#99 = COORDINATED_UNIVERSAL_TIME_OFFSET ( 1, 0, .AHEAD. ) ;
#100 = ORIENTED_EDGE ( 'NONE', *, *, #150, .F. ) ;
#101 = EDGE_CURVE ( 'NONE', #81, #172, #261, .T. ) ;
#102 = DIRECTION ( 'NONE',  ( 1.000000000000000000, 0.000000000000000000, 0.000000000000000000 ) ) ;
#103 = CC_DESIGN_APPROVAL ( #37, ( #240 ) ) ;
#104 = DIRECTION ( 'NONE',  ( 0.000000000000000000, 0.000000000000000000, 1.000000000000000000 ) ) ;
#105 = PERSON_AND_ORGANIZATION ( #73, #290 ) ;
#106 = CARTESIAN_POINT ( 'NONE',  ( 0.000000000000000000, 0.000000000000000000, 0.000000000000000000 ) ) ;
#107 = DIRECTION ( 'NONE',  ( 0.000000000000000000, 0.000000000000000000, 1.000000000000000000 ) ) ;
#108 = CARTESIAN_POINT ( 'NONE',  ( 9.000000000000000000, 1.102182119232617714E-15, 1006.999999999999886 ) ) ;
#109 = LOCAL_TIME ( 11, 35, 11.00000000000000000, #99 ) ;
#110 = CC_DESIGN_PERSON_AND_ORGANIZATION_ASSIGNMENT ( #70, #2, ( #51 ) ) ;
#111 = LINE ( 'NONE', #113, #210 ) ;
#112 = CARTESIAN_POINT ( 'NONE',  ( 0.000000000000000000, 0.000000000000000000, 7.000000000000000000 ) ) ;
#113 = CARTESIAN_POINT ( 'NONE',  ( -12.00000000000000178, 0.000000000000000000, 7.000000000000000000 ) ) ;
#114 = APPROVAL_PERSON_ORGANIZATION ( #118, #78, #233 ) ;
#115 = DIRECTION ( 'NONE',  ( 0.000000000000000000, 0.000000000000000000, 1.000000000000000000 ) ) ;
#116 = ORIENTED_EDGE ( 'NONE', *, *, #74, .T. ) ;
#117 = DIRECTION ( 'NONE',  ( 1.000000000000000000, 0.000000000000000000, 0.000000000000000000 ) ) ;
#118 = PERSON_AND_ORGANIZATION ( #73, #290 ) ;
#119 = AXIS2_PLACEMENT_3D ( 'NONE', #106, #270, #148 ) ;
#120 = CIRCLE ( 'NONE', #166, 9.000000000000000000 ) ;
#121 = EDGE_CURVE ( 'NONE', #172, #81, #209, .T. ) ;
#122 = PERSON_AND_ORGANIZATION ( #73, #290 ) ;
#123 = PERSON_AND_ORGANIZATION ( #73, #290 ) ;
#124 = LOCAL_TIME ( 11, 35, 11.00000000000000000, #72 ) ;
#125 = COORDINATED_UNIVERSAL_TIME_OFFSET ( 1, 0, .AHEAD. ) ;
#126 = ORIENTED_EDGE ( 'NONE', *, *, #88, .F. ) ;
#127 = CARTESIAN_POINT ( 'NONE',  ( 9.000000000000000000, 1.102182119232617714E-15, 1006.999999999999886 ) ) ;
#128 = EDGE_LOOP ( 'NONE', ( #9, #6 ) ) ;
#129 = DIRECTION ( 'NONE',  ( -1.000000000000000000, 1.224646799147353207E-16, 0.000000000000000000 ) ) ;
#130 = ORIENTED_EDGE ( 'NONE', *, *, #57, .F. ) ;
#131 = ORIENTED_EDGE ( 'NONE', *, *, #101, .F. ) ;
#132 = CC_DESIGN_PERSON_AND_ORGANIZATION_ASSIGNMENT ( #123, #214, ( #68 ) ) ;
#133 = FACE_BOUND ( 'NONE', #128, .T. ) ;
#134 = AXIS2_PLACEMENT_3D ( 'NONE', #20, #35, #252 ) ;
#135 = DIRECTION ( 'NONE',  ( 1.000000000000000000, 0.000000000000000000, 0.000000000000000000 ) ) ;
#136 = MANIFOLD_SOLID_BREP ( 'Zaoblit1', #275 ) ;
#137 = DIRECTION ( 'NONE',  ( 0.000000000000000000, 0.000000000000000000, 1.000000000000000000 ) ) ;
#138 = CARTESIAN_POINT ( 'NONE',  ( -9.000000000000000000, 0.000000000000000000, 1006.999999999999886 ) ) ;
#139 = AXIS2_PLACEMENT_3D ( 'NONE', #56, #219, #151 ) ;
#140 = ORIENTED_EDGE ( 'NONE', *, *, #19, .T. ) ;
#141 = APPROVAL_PERSON_ORGANIZATION ( #105, #231, #8 ) ;
#142 = ORIENTED_EDGE ( 'NONE', *, *, #13, .T. ) ;
#143 = EDGE_CURVE ( 'NONE', #302, #29, #120, .T. ) ;
#144 = VECTOR ( 'NONE', #82, 1000.000000000000000 ) ;
#145 = CC_DESIGN_SECURITY_CLASSIFICATION ( #51, ( #68 ) ) ;
#146 = CALENDAR_DATE ( 2022, 7, 7 ) ;
#147 = APPLICATION_PROTOCOL_DEFINITION ( 'international standard', 'config_control_design', 1994, #232 ) ;
#148 = DIRECTION ( 'NONE',  ( 1.000000000000000000, 0.000000000000000000, -0.000000000000000000 ) ) ;
#149 = CARTESIAN_POINT ( 'NONE',  ( 0.000000000000000000, 0.000000000000000000, 7.199999999999984190 ) ) ;
#150 = EDGE_CURVE ( 'NONE', #302, #39, #161, .T. ) ;
#151 = DIRECTION ( 'NONE',  ( 1.000000000000000000, 0.000000000000000000, 0.000000000000000000 ) ) ;
#152 = EDGE_CURVE ( 'NONE', #172, #217, #111, .T. ) ;
#153 = ORIENTED_EDGE ( 'NONE', *, *, #21, .T. ) ;
#154 = ORIENTED_EDGE ( 'NONE', *, *, #101, .T. ) ;
#155 = ADVANCED_FACE ( 'NONE', ( #133, #206 ), #15, .T. ) ;
#156 = CARTESIAN_POINT ( 'NONE',  ( 9.199999999999999289, 0.000000000000000000, 7.199999999999984190 ) ) ;
#157 = ADVANCED_FACE ( 'NONE', ( #204 ), #159, .T. ) ;
#158 = CIRCLE ( 'NONE', #30, 12.00000000000000178 ) ;
#159 = CYLINDRICAL_SURFACE ( 'NONE', #306, 9.000000000000000000 ) ;
#160 = APPROVAL_PERSON_ORGANIZATION ( #22, #37, #211 ) ;
#161 = LINE ( 'NONE', #138, #47 ) ;
#162 = ADVANCED_BREP_SHAPE_REPRESENTATION ( 'b794', ( #136, #176 ), #258 ) ;
#163 = CARTESIAN_POINT ( 'NONE',  ( 0.000000000000000000, 0.000000000000000000, 1006.999999999999886 ) ) ;
#164 = EDGE_LOOP ( 'NONE', ( #243, #93, #44, #116 ) ) ;
#165 = DIRECTION ( 'NONE',  ( 1.000000000000000000, 0.000000000000000000, -0.000000000000000000 ) ) ;
#166 = AXIS2_PLACEMENT_3D ( 'NONE', #163, #249, #257 ) ;
#167 = CALENDAR_DATE ( 2022, 7, 7 ) ;
#168 = CC_DESIGN_PERSON_AND_ORGANIZATION_ASSIGNMENT ( #189, #236, ( #68 ) ) ;
#169 =( LENGTH_UNIT ( ) NAMED_UNIT ( * ) SI_UNIT ( .MILLI., .METRE. ) );
#170 = DATE_AND_TIME ( #171, #198 ) ;
#171 = CALENDAR_DATE ( 2022, 7, 7 ) ;
#172 = VERTEX_POINT ( 'NONE', #278 ) ;
#173 = PERSON_AND_ORGANIZATION_ROLE ( 'creator' ) ;
#174 = CALENDAR_DATE ( 2022, 7, 7 ) ;
#175 = ORIENTED_EDGE ( 'NONE', *, *, #150, .T. ) ;
#176 = AXIS2_PLACEMENT_3D ( 'NONE', #234, #193, #45 ) ;
#177 = CARTESIAN_POINT ( 'NONE',  ( 12.00000000000000178, 1.469576158976824144E-15, 7.000000000000000000 ) ) ;
#178 = EDGE_CURVE ( 'NONE', #29, #302, #230, .T. ) ;
#179 = PRODUCT_DEFINITION_SHAPE ( 'NONE', 'NONE',  #240 ) ;
#180 = DATE_AND_TIME ( #174, #281 ) ;
#181 = FACE_OUTER_BOUND ( 'NONE', #253, .T. ) ;
#182 = EDGE_LOOP ( 'NONE', ( #288, #245, #175, #11 ) ) ;
#183 = CARTESIAN_POINT ( 'NONE',  ( 0.000000000000000000, 0.000000000000000000, 0.000000000000000000 ) ) ;
#184 = DIRECTION ( 'NONE',  ( -0.000000000000000000, -0.000000000000000000, -1.000000000000000000 ) ) ;
#185 = FACE_OUTER_BOUND ( 'NONE', #26, .T. ) ;
#186 = DIRECTION ( 'NONE',  ( -0.000000000000000000, -0.000000000000000000, -1.000000000000000000 ) ) ;
#187 = DIRECTION ( 'NONE',  ( 0.000000000000000000, 0.000000000000000000, 1.000000000000000000 ) ) ;
#188 = CARTESIAN_POINT ( 'NONE',  ( 0.000000000000000000, 0.000000000000000000, 7.000000000000000000 ) ) ;
#189 = PERSON_AND_ORGANIZATION ( #73, #290 ) ;
#190 = CIRCLE ( 'NONE', #50, 12.00000000000000178 ) ;
#191 = CC_DESIGN_DATE_AND_TIME_ASSIGNMENT ( #69, #237, ( #240 ) ) ;
#192 = LOCAL_TIME ( 11, 35, 11.00000000000000000, #263 ) ;
#193 = DIRECTION ( 'NONE',  ( 0.000000000000000000, 0.000000000000000000, 1.000000000000000000 ) ) ;
#194 = APPROVAL_DATE_TIME ( #170, #37 ) ;
#195 = ADVANCED_FACE ( 'NONE', ( #185 ), #301, .T. ) ;
#196 = ORIENTED_EDGE ( 'NONE', *, *, #41, .F. ) ;
#197 = TOROIDAL_SURFACE ( 'NONE', #139, 9.199999999999999289, 0.2000000000000000111 ) ;
#198 = LOCAL_TIME ( 11, 35, 11.00000000000000000, #125 ) ;
#199 = ORIENTED_EDGE ( 'NONE', *, *, #178, .T. ) ;
#200 = ORIENTED_EDGE ( 'NONE', *, *, #121, .T. ) ;
#201 = ORIENTED_EDGE ( 'NONE', *, *, #178, .F. ) ;
#202 = AXIS2_PLACEMENT_3D ( 'NONE', #18, #207, #86 ) ;
#203 = ORIENTED_EDGE ( 'NONE', *, *, #143, .T. ) ;
#204 = FACE_OUTER_BOUND ( 'NONE', #182, .T. ) ;
#205 = CARTESIAN_POINT ( 'NONE',  ( 0.000000000000000000, 0.000000000000000000, 7.000000000000000000 ) ) ;
#206 = FACE_OUTER_BOUND ( 'NONE', #221, .T. ) ;
#207 = DIRECTION ( 'NONE',  ( 0.000000000000000000, 0.000000000000000000, 1.000000000000000000 ) ) ;
#208 = CARTESIAN_POINT ( 'NONE',  ( 0.000000000000000000, 0.000000000000000000, 1006.999999999999886 ) ) ;
#209 = CIRCLE ( 'NONE', #246, 12.00000000000000178 ) ;
#210 = VECTOR ( 'NONE', #226, 1000.000000000000000 ) ;
#211 = APPROVAL_ROLE ( '' ) ;
#212 = ADVANCED_FACE ( 'NONE', ( #277 ), #23, .F. ) ;
#213 = CC_DESIGN_PERSON_AND_ORGANIZATION_ASSIGNMENT ( #122, #1, ( #54 ) ) ;
#214 = PERSON_AND_ORGANIZATION_ROLE ( 'creator' ) ;
#215 = VECTOR ( 'NONE', #305, 1000.000000000000000 ) ;
#216 = CIRCLE ( 'NONE', #42, 0.1999999999999996503 ) ;
#217 = VERTEX_POINT ( 'NONE', #274 ) ;
#218 = DIRECTION ( 'NONE',  ( 0.000000000000000000, 0.000000000000000000, 1.000000000000000000 ) ) ;
#219 = DIRECTION ( 'NONE',  ( 0.000000000000000000, 0.000000000000000000, 1.000000000000000000 ) ) ;
#220 = CIRCLE ( 'NONE', #90, 9.199999999999999289 ) ;
#221 = EDGE_LOOP ( 'NONE', ( #200, #154 ) ) ;
#222 = CARTESIAN_POINT ( 'NONE',  ( -9.199999999999999289, 1.126675055215564822E-15, 7.199999999999984190 ) ) ;
#223 = EDGE_LOOP ( 'NONE', ( #131, #58, #140, #247 ) ) ;
#224 = CIRCLE ( 'NONE', #202, 9.000000000000000000 ) ;
#225 = DIRECTION ( 'NONE',  ( -1.000000000000000000, 0.000000000000000000, 0.000000000000000000 ) ) ;
#226 = DIRECTION ( 'NONE',  ( -0.000000000000000000, -0.000000000000000000, -1.000000000000000000 ) ) ;
#227 = FACE_OUTER_BOUND ( 'NONE', #49, .T. ) ;
#228 = ORIENTED_EDGE ( 'NONE', *, *, #57, .T. ) ;
#229 = DIRECTION ( 'NONE',  ( 1.000000000000000000, 0.000000000000000000, -0.000000000000000000 ) ) ;
#230 = CIRCLE ( 'NONE', #59, 9.000000000000000000 ) ;
#231 = APPROVAL ( #27, 'NEURÈENÝ' ) ;
#232 = APPLICATION_CONTEXT ( 'configuration controlled 3d designs of mechanical parts and assemblies' ) ;
#233 = APPROVAL_ROLE ( '' ) ;
#234 = CARTESIAN_POINT ( 'NONE',  ( 0.000000000000000000, 0.000000000000000000, 0.000000000000000000 ) ) ;
#235 = AXIS2_PLACEMENT_3D ( 'NONE', #205, #115, #229 ) ;
#236 = PERSON_AND_ORGANIZATION_ROLE ( 'design_supplier' ) ;
#237 = DATE_TIME_ROLE ( 'creation_date' ) ;
#238 = ORIENTED_EDGE ( 'NONE', *, *, #74, .F. ) ;
#239 = CARTESIAN_POINT ( 'NONE',  ( 12.00000000000000178, 1.469576158976824144E-15, 7.000000000000000000 ) ) ;
#240 = PRODUCT_DEFINITION ( 'NEZNÁMÝ', '', #68, #53 ) ;
#241 = SHAPE_DEFINITION_REPRESENTATION ( #179, #162 ) ;
#242 = CARTESIAN_POINT ( 'NONE',  ( 9.199999999999999289, 0.000000000000000000, 6.999999999999992006 ) ) ;
#243 = ORIENTED_EDGE ( 'NONE', *, *, #299, .F. ) ;
#244 = ADVANCED_FACE ( 'NONE', ( #303 ), #36, .T. ) ;
#245 = ORIENTED_EDGE ( 'NONE', *, *, #143, .F. ) ;
#246 = AXIS2_PLACEMENT_3D ( 'NONE', #112, #298, #16 ) ;
#247 = ORIENTED_EDGE ( 'NONE', *, *, #152, .F. ) ;
#248 = CARTESIAN_POINT ( 'NONE',  ( -9.000000000000000000, 0.000000000000000000, 7.199999999999984190 ) ) ;
#249 = DIRECTION ( 'NONE',  ( 0.000000000000000000, 0.000000000000000000, 1.000000000000000000 ) ) ;
#250 = ADVANCED_FACE ( 'NONE', ( #227 ), #38, .T. ) ;
#251 = CARTESIAN_POINT ( 'NONE',  ( 0.000000000000000000, 0.000000000000000000, 1006.999999999999886 ) ) ;
#252 = DIRECTION ( 'NONE',  ( -1.000000000000000000, 0.000000000000000000, 0.000000000000000000 ) ) ;
#253 = EDGE_LOOP ( 'NONE', ( #238, #17 ) ) ;
#254 = EDGE_CURVE ( 'NONE', #39, #32, #224, .T. ) ;
#255 = ADVANCED_FACE ( 'NONE', ( #92 ), #94, .T. ) ;
#256 = CARTESIAN_POINT ( 'NONE',  ( 0.000000000000000000, 0.000000000000000000, 7.199999999999984190 ) ) ;
#257 = DIRECTION ( 'NONE',  ( 1.000000000000000000, 0.000000000000000000, 0.000000000000000000 ) ) ;
#258 =( GEOMETRIC_REPRESENTATION_CONTEXT ( 3 ) GLOBAL_UNCERTAINTY_ASSIGNED_CONTEXT ( ( #80 ) ) GLOBAL_UNIT_ASSIGNED_CONTEXT ( ( #169, #48, #284 ) ) REPRESENTATION_CONTEXT ( 'NONE', 'WORKASPACE' ) );
#259 = DATE_TIME_ROLE ( 'classification_date' ) ;
#260 = APPLICATION_PROTOCOL_DEFINITION ( 'international standard', 'config_control_design', 1994, #291 ) ;
#261 = CIRCLE ( 'NONE', #3, 12.00000000000000178 ) ;
#262 = AXIS2_PLACEMENT_3D ( 'NONE', #188, #184, #273 ) ;
#263 = COORDINATED_UNIVERSAL_TIME_OFFSET ( 1, 0, .AHEAD. ) ;
#264 = DIRECTION ( 'NONE',  ( 0.000000000000000000, -1.000000000000000000, 0.000000000000000000 ) ) ;
#265 = VERTEX_POINT ( 'NONE', #61 ) ;
#266 = CARTESIAN_POINT ( 'NONE',  ( 0.000000000000000000, 0.000000000000000000, 7.000000000000000000 ) ) ;
#267 = ORIENTED_EDGE ( 'NONE', *, *, #254, .F. ) ;
#268 = EDGE_CURVE ( 'NONE', #32, #66, #216, .T. ) ;
#269 = PLANE ( 'NONE',  #119 ) ;
#270 = DIRECTION ( 'NONE',  ( 0.000000000000000000, 0.000000000000000000, 1.000000000000000000 ) ) ;
#271 = CC_DESIGN_APPROVAL ( #78, ( #68 ) ) ;
#272 = DIRECTION ( 'NONE',  ( 1.000000000000000000, 0.000000000000000000, 0.000000000000000000 ) ) ;
#273 = DIRECTION ( 'NONE',  ( -1.000000000000000000, 0.000000000000000000, 0.000000000000000000 ) ) ;
#274 = CARTESIAN_POINT ( 'NONE',  ( -12.00000000000000178, 0.000000000000000000, 0.000000000000000000 ) ) ;
#275 = CLOSED_SHELL ( 'NONE', ( #212, #195, #255, #244, #155, #33, #157, #250, #85 ) ) ;
#276 = CC_DESIGN_APPROVAL ( #231, ( #51 ) ) ;
#277 = FACE_OUTER_BOUND ( 'NONE', #287, .T. ) ;
#278 = CARTESIAN_POINT ( 'NONE',  ( -12.00000000000000178, 0.000000000000000000, 7.000000000000000000 ) ) ;
#279 = CARTESIAN_POINT ( 'NONE',  ( 0.000000000000000000, 0.000000000000000000, 1006.999999999999886 ) ) ;
#280 = CC_DESIGN_DATE_AND_TIME_ASSIGNMENT ( #75, #259, ( #51 ) ) ;
#281 = LOCAL_TIME ( 11, 35, 11.00000000000000000, #10 ) ;
#282 = PRODUCT_RELATED_PRODUCT_CATEGORY ( 'detail', '', ( #54 ) ) ;
#283 = LINE ( 'NONE', #239, #215 ) ;
#284 =( NAMED_UNIT ( * ) SI_UNIT ( $, .STERADIAN. ) SOLID_ANGLE_UNIT ( ) );
#285 = PERSON_AND_ORGANIZATION ( #73, #290 ) ;
#286 = SECURITY_CLASSIFICATION_LEVEL ( 'unclassified' ) ;
#287 = EDGE_LOOP ( 'NONE', ( #267, #153, #126, #76 ) ) ;
#288 = ORIENTED_EDGE ( 'NONE', *, *, #13, .F. ) ;
#289 = AXIS2_PLACEMENT_3D ( 'NONE', #149, #107, #295 ) ;
#290 = ORGANIZATION ( 'NEURÈENÝ', 'NEURÈENÝ', '' ) ;
#291 = APPLICATION_CONTEXT ( 'configuration controlled 3d designs of mechanical parts and assemblies' ) ;
#292 = LINE ( 'NONE', #108, #144 ) ;
#293 = CC_DESIGN_PERSON_AND_ORGANIZATION_ASSIGNMENT ( #285, #173, ( #240 ) ) ;
#294 = ORIENTED_EDGE ( 'NONE', *, *, #268, .T. ) ;
#295 = DIRECTION ( 'NONE',  ( 1.000000000000000000, 0.000000000000000000, 0.000000000000000000 ) ) ;
#296 = DIRECTION ( 'NONE',  ( 1.000000000000000000, 0.000000000000000000, 0.000000000000000000 ) ) ;
#297 = DIRECTION ( 'NONE',  ( -0.000000000000000000, -0.000000000000000000, -1.000000000000000000 ) ) ;
#298 = DIRECTION ( 'NONE',  ( 0.000000000000000000, 0.000000000000000000, 1.000000000000000000 ) ) ;
#299 = EDGE_CURVE ( 'NONE', #81, #265, #283, .T. ) ;
#300 = AXIS2_PLACEMENT_3D ( 'NONE', #222, #52, #129 ) ;
#301 = CYLINDRICAL_SURFACE ( 'NONE', #63, 9.000000000000000000 ) ;
#302 = VERTEX_POINT ( 'NONE', #71 ) ;
#303 = FACE_OUTER_BOUND ( 'NONE', #164, .T. ) ;
#304 = CIRCLE ( 'NONE', #289, 9.000000000000000000 ) ;
#305 = DIRECTION ( 'NONE',  ( -0.000000000000000000, -0.000000000000000000, -1.000000000000000000 ) ) ;
#306 = AXIS2_PLACEMENT_3D ( 'NONE', #67, #297, #87 ) ;
#307 = APPROVAL_STATUS ( 'not_yet_approved' ) ;
ENDSEC;
END-ISO-10303-21;
