ISO-10303-21;
HEADER;
FILE_DESCRIPTION (( 'STEP AP203' ),
    '1' );
FILE_NAME ('cb33.STEP',
    '2022-07-07T09:35:45',
    ( '' ),
    ( '' ),
    'SwSTEP 2.0',
    'SolidWorks 2019',
    '' );
FILE_SCHEMA (( 'CONFIG_CONTROL_DESIGN' ));
ENDSEC;

DATA;
#1 = DIRECTION ( 'NONE',  ( 0.000000000000000000, 0.000000000000000000, 1.000000000000000000 ) ) ;
#2 = ORIENTED_EDGE ( 'NONE', *, *, #104, .F. ) ;
#3 = PRODUCT_DEFINITION ( 'NEZNÁMÝ', '', #207, #59 ) ;
#4 = CARTESIAN_POINT ( 'NONE',  ( -9.000000000000000000, 0.000000000000000000, 407.0000000000000000 ) ) ;
#5 = DIRECTION ( 'NONE',  ( -1.000000000000000000, 1.224646799147353207E-16, 0.000000000000000000 ) ) ;
#6 = AXIS2_PLACEMENT_3D ( 'NONE', #47, #1, #72 ) ;
#7 = DIRECTION ( 'NONE',  ( 1.000000000000000000, 0.000000000000000000, 0.000000000000000000 ) ) ;
#8 = CC_DESIGN_PERSON_AND_ORGANIZATION_ASSIGNMENT ( #86, #181, ( #3 ) ) ;
#9 = CARTESIAN_POINT ( 'NONE',  ( 9.000000000000000000, 1.102182119232617714E-15, 407.0000000000000000 ) ) ;
#10 = CIRCLE ( 'NONE', #110, 0.1999999999999996503 ) ;
#11 = CARTESIAN_POINT ( 'NONE',  ( 0.000000000000000000, 0.000000000000000000, 7.199999999999984190 ) ) ;
#12 = CC_DESIGN_PERSON_AND_ORGANIZATION_ASSIGNMENT ( #258, #68, ( #172 ) ) ;
#13 = ORIENTED_EDGE ( 'NONE', *, *, #55, .T. ) ;
#14 = DIRECTION ( 'NONE',  ( 1.000000000000000000, 0.000000000000000000, 0.000000000000000000 ) ) ;
#15 = VECTOR ( 'NONE', #69, 1000.000000000000000 ) ;
#16 = ORIENTED_EDGE ( 'NONE', *, *, #55, .F. ) ;
#17 = UNCERTAINTY_MEASURE_WITH_UNIT (LENGTH_MEASURE( 1.000000000000000082E-05 ), #236, 'distance_accuracy_value', 'NONE');
#18 = CIRCLE ( 'NONE', #170, 9.199999999999999289 ) ;
#19 = DATE_TIME_ROLE ( 'creation_date' ) ;
#20 = AXIS2_PLACEMENT_3D ( 'NONE', #97, #61, #121 ) ;
#21 = DIRECTION ( 'NONE',  ( -1.000000000000000000, 0.000000000000000000, 0.000000000000000000 ) ) ;
#22 = CARTESIAN_POINT ( 'NONE',  ( 9.000000000000000000, 1.102182119232617714E-15, 407.0000000000000000 ) ) ;
#23 = AXIS2_PLACEMENT_3D ( 'NONE', #50, #101, #241 ) ;
#24 = ADVANCED_FACE ( 'NONE', ( #111 ), #54, .T. ) ;
#25 = FACE_OUTER_BOUND ( 'NONE', #128, .T. ) ;
#26 = DIRECTION ( 'NONE',  ( 0.000000000000000000, 0.000000000000000000, 1.000000000000000000 ) ) ;
#27 = CARTESIAN_POINT ( 'NONE',  ( 0.000000000000000000, 0.000000000000000000, 407.0000000000000000 ) ) ;
#28 = LOCAL_TIME ( 11, 35, 45.00000000000000000, #37 ) ;
#29 = EDGE_LOOP ( 'NONE', ( #30, #235 ) ) ;
#30 = ORIENTED_EDGE ( 'NONE', *, *, #163, .T. ) ;
#31 = EDGE_LOOP ( 'NONE', ( #130, #174 ) ) ;
#32 = AXIS2_PLACEMENT_3D ( 'NONE', #208, #256, #286 ) ;
#33 = AXIS2_PLACEMENT_3D ( 'NONE', #307, #138, #136 ) ;
#34 = DATE_AND_TIME ( #155, #28 ) ;
#35 = EDGE_CURVE ( 'NONE', #106, #273, #299, .T. ) ;
#36 = PERSON_AND_ORGANIZATION ( #289, #303 ) ;
#37 = COORDINATED_UNIVERSAL_TIME_OFFSET ( 1, 0, .AHEAD. ) ;
#38 = COORDINATED_UNIVERSAL_TIME_OFFSET ( 1, 0, .AHEAD. ) ;
#39 = APPLICATION_PROTOCOL_DEFINITION ( 'international standard', 'config_control_design', 1994, #200 ) ;
#40 = EDGE_CURVE ( 'NONE', #196, #270, #275, .T. ) ;
#41 = EDGE_LOOP ( 'NONE', ( #282, #159 ) ) ;
#42 = LOCAL_TIME ( 11, 35, 45.00000000000000000, #38 ) ;
#43 = FACE_OUTER_BOUND ( 'NONE', #131, .T. ) ;
#44 = DIRECTION ( 'NONE',  ( -0.000000000000000000, -0.000000000000000000, -1.000000000000000000 ) ) ;
#45 = PERSON_AND_ORGANIZATION ( #289, #303 ) ;
#46 = DIRECTION ( 'NONE',  ( -0.000000000000000000, -0.000000000000000000, -1.000000000000000000 ) ) ;
#47 = CARTESIAN_POINT ( 'NONE',  ( 0.000000000000000000, 0.000000000000000000, 7.000000000000000000 ) ) ;
#48 = AXIS2_PLACEMENT_3D ( 'NONE', #283, #287, #21 ) ;
#49 = CARTESIAN_POINT ( 'NONE',  ( 0.000000000000000000, 0.000000000000000000, 407.0000000000000000 ) ) ;
#50 = CARTESIAN_POINT ( 'NONE',  ( 0.000000000000000000, 0.000000000000000000, 7.199999999999984190 ) ) ;
#51 = ORIENTED_EDGE ( 'NONE', *, *, #244, .F. ) ;
#52 = EDGE_CURVE ( 'NONE', #62, #92, #10, .T. ) ;
#53 = ORIENTED_EDGE ( 'NONE', *, *, #109, .F. ) ;
#54 = PLANE ( 'NONE',  #100 ) ;
#55 = EDGE_CURVE ( 'NONE', #225, #62, #114, .T. ) ;
#56 = COORDINATED_UNIVERSAL_TIME_OFFSET ( 1, 0, .AHEAD. ) ;
#57 = APPROVAL_STATUS ( 'not_yet_approved' ) ;
#58 = PERSON_AND_ORGANIZATION ( #289, #303 ) ;
#59 = DESIGN_CONTEXT ( 'detailed design', #135, 'design' ) ;
#60 = AXIS2_PLACEMENT_3D ( 'NONE', #77, #290, #259 ) ;
#61 = DIRECTION ( 'NONE',  ( -0.000000000000000000, -0.000000000000000000, -1.000000000000000000 ) ) ;
#62 = VERTEX_POINT ( 'NONE', #78 ) ;
#63 = DIRECTION ( 'NONE',  ( 1.000000000000000000, 0.000000000000000000, 0.000000000000000000 ) ) ;
#64 = ORIENTED_EDGE ( 'NONE', *, *, #167, .T. ) ;
#65 = DIRECTION ( 'NONE',  ( 0.000000000000000000, 0.000000000000000000, 1.000000000000000000 ) ) ;
#66 = DIRECTION ( 'NONE',  ( 1.224646799147353207E-16, 1.000000000000000000, -0.000000000000000000 ) ) ;
#67 = LOCAL_TIME ( 11, 35, 45.00000000000000000, #201 ) ;
#68 = PERSON_AND_ORGANIZATION_ROLE ( 'design_owner' ) ;
#69 = DIRECTION ( 'NONE',  ( -0.000000000000000000, -0.000000000000000000, -1.000000000000000000 ) ) ;
#70 = ORIENTED_EDGE ( 'NONE', *, *, #104, .T. ) ;
#71 = CC_DESIGN_DATE_AND_TIME_ASSIGNMENT ( #112, #152, ( #80 ) ) ;
#72 = DIRECTION ( 'NONE',  ( 1.000000000000000000, 0.000000000000000000, 0.000000000000000000 ) ) ;
#73 = CARTESIAN_POINT ( 'NONE',  ( -9.199999999999999289, 1.126675055215564822E-15, 6.999999999999992006 ) ) ;
#74 = AXIS2_PLACEMENT_3D ( 'NONE', #239, #26, #220 ) ;
#75 = LOCAL_TIME ( 11, 35, 45.00000000000000000, #56 ) ;
#76 = MANIFOLD_SOLID_BREP ( 'Zaoblit1', #269 ) ;
#77 = CARTESIAN_POINT ( 'NONE',  ( 0.000000000000000000, 0.000000000000000000, 0.000000000000000000 ) ) ;
#78 = CARTESIAN_POINT ( 'NONE',  ( 9.000000000000000000, 1.102182119232617714E-15, 7.199999999999984190 ) ) ;
#79 = ORIENTED_EDGE ( 'NONE', *, *, #230, .T. ) ;
#80 = SECURITY_CLASSIFICATION ( '', '', #304 ) ;
#81 = CARTESIAN_POINT ( 'NONE',  ( 9.199999999999999289, 0.000000000000000000, 7.199999999999984190 ) ) ;
#82 = EDGE_CURVE ( 'NONE', #150, #183, #173, .T. ) ;
#83 = EDGE_LOOP ( 'NONE', ( #108, #53 ) ) ;
#84 = COORDINATED_UNIVERSAL_TIME_OFFSET ( 1, 0, .AHEAD. ) ;
#85 = AXIS2_PLACEMENT_3D ( 'NONE', #281, #65, #158 ) ;
#86 = PERSON_AND_ORGANIZATION ( #289, #303 ) ;
#87 = DATE_AND_TIME ( #180, #75 ) ;
#88 = PRODUCT_RELATED_PRODUCT_CATEGORY ( 'detail', '', ( #172 ) ) ;
#89 = PERSON_AND_ORGANIZATION_ROLE ( 'design_supplier' ) ;
#90 = DIRECTION ( 'NONE',  ( 1.000000000000000000, 0.000000000000000000, 0.000000000000000000 ) ) ;
#91 = TOROIDAL_SURFACE ( 'NONE', #249, 9.199999999999999289, 0.2000000000000000111 ) ;
#92 = VERTEX_POINT ( 'NONE', #219 ) ;
#93 = EDGE_LOOP ( 'NONE', ( #2, #182, #147, #51 ) ) ;
#94 =( NAMED_UNIT ( * ) PLANE_ANGLE_UNIT ( ) SI_UNIT ( $, .RADIAN. ) );
#95 = CYLINDRICAL_SURFACE ( 'NONE', #125, 12.00000000000000178 ) ;
#96 = ORIENTED_EDGE ( 'NONE', *, *, #230, .F. ) ;
#97 = CARTESIAN_POINT ( 'NONE',  ( 0.000000000000000000, 0.000000000000000000, 407.0000000000000000 ) ) ;
#98 = ADVANCED_FACE ( 'NONE', ( #25 ), #157, .F. ) ;
#99 = CARTESIAN_POINT ( 'NONE',  ( -12.00000000000000178, 0.000000000000000000, 0.000000000000000000 ) ) ;
#100 = AXIS2_PLACEMENT_3D ( 'NONE', #177, #247, #224 ) ;
#101 = DIRECTION ( 'NONE',  ( 0.000000000000000000, 0.000000000000000000, 1.000000000000000000 ) ) ;
#102 = FACE_OUTER_BOUND ( 'NONE', #175, .T. ) ;
#103 = CARTESIAN_POINT ( 'NONE',  ( 0.000000000000000000, 0.000000000000000000, 0.000000000000000000 ) ) ;
#104 = EDGE_CURVE ( 'NONE', #225, #213, #198, .T. ) ;
#105 = ORIENTED_EDGE ( 'NONE', *, *, #195, .T. ) ;
#106 = VERTEX_POINT ( 'NONE', #264 ) ;
#107 = ADVANCED_BREP_SHAPE_REPRESENTATION ( 'cb33', ( #76, #85 ), #233 ) ;
#108 = ORIENTED_EDGE ( 'NONE', *, *, #195, .F. ) ;
#109 = EDGE_CURVE ( 'NONE', #273, #183, #148, .T. ) ;
#110 = AXIS2_PLACEMENT_3D ( 'NONE', #81, #129, #221 ) ;
#111 = FACE_OUTER_BOUND ( 'NONE', #29, .T. ) ;
#112 = DATE_AND_TIME ( #229, #285 ) ;
#113 = EDGE_CURVE ( 'NONE', #106, #150, #132, .T. ) ;
#114 = CIRCLE ( 'NONE', #254, 9.000000000000000000 ) ;
#115 = APPROVAL_DATE_TIME ( #277, #238 ) ;
#116 = PERSON_AND_ORGANIZATION ( #289, #303 ) ;
#117 = CC_DESIGN_DATE_AND_TIME_ASSIGNMENT ( #204, #19, ( #3 ) ) ;
#118 = CIRCLE ( 'NONE', #60, 12.00000000000000178 ) ;
#119 = MECHANICAL_CONTEXT ( 'NONE', #200, 'mechanical' ) ;
#120 = FACE_OUTER_BOUND ( 'NONE', #300, .T. ) ;
#121 = DIRECTION ( 'NONE',  ( -1.000000000000000000, 0.000000000000000000, 0.000000000000000000 ) ) ;
#122 = LINE ( 'NONE', #215, #15 ) ;
#123 = ORIENTED_EDGE ( 'NONE', *, *, #82, .T. ) ;
#124 = CARTESIAN_POINT ( 'NONE',  ( 0.000000000000000000, 0.000000000000000000, 7.199999999999984190 ) ) ;
#125 = AXIS2_PLACEMENT_3D ( 'NONE', #166, #189, #295 ) ;
#126 = DIRECTION ( 'NONE',  ( 0.000000000000000000, 0.000000000000000000, 1.000000000000000000 ) ) ;
#127 = LINE ( 'NONE', #9, #144 ) ;
#128 = EDGE_LOOP ( 'NONE', ( #16, #70, #291, #197 ) ) ;
#129 = DIRECTION ( 'NONE',  ( 0.000000000000000000, -1.000000000000000000, 0.000000000000000000 ) ) ;
#130 = ORIENTED_EDGE ( 'NONE', *, *, #156, .T. ) ;
#131 = EDGE_LOOP ( 'NONE', ( #194, #246, #123, #105 ) ) ;
#132 = CIRCLE ( 'NONE', #6, 12.00000000000000178 ) ;
#133 = SHAPE_DEFINITION_REPRESENTATION ( #294, #107 ) ;
#134 = APPROVAL_DATE_TIME ( #87, #260 ) ;
#135 = APPLICATION_CONTEXT ( 'configuration controlled 3d designs of mechanical parts and assemblies' ) ;
#136 = DIRECTION ( 'NONE',  ( -1.000000000000000000, 0.000000000000000000, 0.000000000000000000 ) ) ;
#137 = ORIENTED_EDGE ( 'NONE', *, *, #222, .F. ) ;
#138 = DIRECTION ( 'NONE',  ( -0.000000000000000000, -0.000000000000000000, -1.000000000000000000 ) ) ;
#139 = DIRECTION ( 'NONE',  ( 0.000000000000000000, 0.000000000000000000, 1.000000000000000000 ) ) ;
#140 = CC_DESIGN_PERSON_AND_ORGANIZATION_ASSIGNMENT ( #274, #276, ( #80 ) ) ;
#141 = CARTESIAN_POINT ( 'NONE',  ( 0.000000000000000000, 0.000000000000000000, 7.199999999999984190 ) ) ;
#142 = DIRECTION ( 'NONE',  ( -0.000000000000000000, -0.000000000000000000, -1.000000000000000000 ) ) ;
#143 = CARTESIAN_POINT ( 'NONE',  ( -12.00000000000000178, 0.000000000000000000, 7.000000000000000000 ) ) ;
#144 = VECTOR ( 'NONE', #142, 1000.000000000000000 ) ;
#145 = CARTESIAN_POINT ( 'NONE',  ( 0.000000000000000000, 0.000000000000000000, 7.000000000000000000 ) ) ;
#146 = CARTESIAN_POINT ( 'NONE',  ( -12.00000000000000178, 0.000000000000000000, 7.000000000000000000 ) ) ;
#147 = ORIENTED_EDGE ( 'NONE', *, *, #52, .T. ) ;
#148 = CIRCLE ( 'NONE', #74, 12.00000000000000178 ) ;
#149 = ADVANCED_FACE ( 'NONE', ( #102 ), #95, .T. ) ;
#150 = VERTEX_POINT ( 'NONE', #143 ) ;
#151 = ORIENTED_EDGE ( 'NONE', *, *, #82, .F. ) ;
#152 = DATE_TIME_ROLE ( 'classification_date' ) ;
#153 = AXIS2_PLACEMENT_3D ( 'NONE', #145, #242, #212 ) ;
#154 = APPROVAL_STATUS ( 'not_yet_approved' ) ;
#155 = CALENDAR_DATE ( 2022, 7, 7 ) ;
#156 = EDGE_CURVE ( 'NONE', #92, #213, #18, .T. ) ;
#157 = TOROIDAL_SURFACE ( 'NONE', #306, 9.199999999999999289, 0.2000000000000000111 ) ;
#158 = DIRECTION ( 'NONE',  ( 1.000000000000000000, 0.000000000000000000, 0.000000000000000000 ) ) ;
#159 = ORIENTED_EDGE ( 'NONE', *, *, #113, .T. ) ;
#160 = APPROVAL_PERSON_ORGANIZATION ( #45, #184, #231 ) ;
#161 = CC_DESIGN_SECURITY_CLASSIFICATION ( #80, ( #207 ) ) ;
#162 = CARTESIAN_POINT ( 'NONE',  ( -9.199999999999999289, 1.126675055215564822E-15, 7.199999999999984190 ) ) ;
#163 = EDGE_CURVE ( 'NONE', #270, #196, #187, .T. ) ;
#164 = DIRECTION ( 'NONE',  ( 1.000000000000000000, 0.000000000000000000, 0.000000000000000000 ) ) ;
#165 = ORIENTED_EDGE ( 'NONE', *, *, #113, .F. ) ;
#166 = CARTESIAN_POINT ( 'NONE',  ( 0.000000000000000000, 0.000000000000000000, 7.000000000000000000 ) ) ;
#167 = EDGE_CURVE ( 'NONE', #62, #225, #216, .T. ) ;
#168 = CIRCLE ( 'NONE', #32, 12.00000000000000178 ) ;
#169 = FACE_BOUND ( 'NONE', #31, .T. ) ;
#170 = AXIS2_PLACEMENT_3D ( 'NONE', #218, #243, #164 ) ;
#171 = DIRECTION ( 'NONE',  ( 1.000000000000000000, 0.000000000000000000, -0.000000000000000000 ) ) ;
#172 = PRODUCT ( 'cb33', 'cb33', '', ( #119 ) ) ;
#173 = LINE ( 'NONE', #146, #240 ) ;
#174 = ORIENTED_EDGE ( 'NONE', *, *, #244, .T. ) ;
#175 = EDGE_LOOP ( 'NONE', ( #165, #209, #268, #151 ) ) ;
#176 = APPROVAL_DATE_TIME ( #34, #184 ) ;
#177 = CARTESIAN_POINT ( 'NONE',  ( 0.000000000000000000, 0.000000000000000000, 407.0000000000000000 ) ) ;
#178 = CALENDAR_DATE ( 2022, 7, 7 ) ;
#179 = CIRCLE ( 'NONE', #227, 9.199999999999999289 ) ;
#180 = CALENDAR_DATE ( 2022, 7, 7 ) ;
#181 = PERSON_AND_ORGANIZATION_ROLE ( 'creator' ) ;
#182 = ORIENTED_EDGE ( 'NONE', *, *, #167, .F. ) ;
#183 = VERTEX_POINT ( 'NONE', #99 ) ;
#184 = APPROVAL ( #154, 'NEURÈENÝ' ) ;
#185 =( NAMED_UNIT ( * ) SI_UNIT ( $, .STERADIAN. ) SOLID_ANGLE_UNIT ( ) );
#186 = CYLINDRICAL_SURFACE ( 'NONE', #48, 9.000000000000000000 ) ;
#187 = CIRCLE ( 'NONE', #298, 9.000000000000000000 ) ;
#188 = DIRECTION ( 'NONE',  ( 0.000000000000000000, 0.000000000000000000, 1.000000000000000000 ) ) ;
#189 = DIRECTION ( 'NONE',  ( -0.000000000000000000, -0.000000000000000000, -1.000000000000000000 ) ) ;
#190 = FACE_OUTER_BOUND ( 'NONE', #83, .T. ) ;
#191 = AXIS2_PLACEMENT_3D ( 'NONE', #27, #199, #14 ) ;
#192 = CARTESIAN_POINT ( 'NONE',  ( -9.000000000000000000, 0.000000000000000000, 7.199999999999984190 ) ) ;
#193 = APPROVAL_PERSON_ORGANIZATION ( #301, #238, #251 ) ;
#194 = ORIENTED_EDGE ( 'NONE', *, *, #35, .F. ) ;
#195 = EDGE_CURVE ( 'NONE', #183, #273, #118, .T. ) ;
#196 = VERTEX_POINT ( 'NONE', #22 ) ;
#197 = ORIENTED_EDGE ( 'NONE', *, *, #52, .F. ) ;
#198 = CIRCLE ( 'NONE', #245, 0.2000000000000005107 ) ;
#199 = DIRECTION ( 'NONE',  ( 0.000000000000000000, 0.000000000000000000, 1.000000000000000000 ) ) ;
#200 = APPLICATION_CONTEXT ( 'configuration controlled 3d designs of mechanical parts and assemblies' ) ;
#201 = COORDINATED_UNIVERSAL_TIME_OFFSET ( 1, 0, .AHEAD. ) ;
#202 = CC_DESIGN_APPROVAL ( #184, ( #3 ) ) ;
#203 = CC_DESIGN_APPROVAL ( #260, ( #207 ) ) ;
#204 = DATE_AND_TIME ( #250, #67 ) ;
#205 = DIRECTION ( 'NONE',  ( 0.000000000000000000, 0.000000000000000000, 1.000000000000000000 ) ) ;
#206 = APPROVAL_PERSON_ORGANIZATION ( #58, #260, #253 ) ;
#207 = PRODUCT_DEFINITION_FORMATION_WITH_SPECIFIED_SOURCE ( 'LIBOVOLNÝ', '', #172, .NOT_KNOWN. ) ;
#208 = CARTESIAN_POINT ( 'NONE',  ( 0.000000000000000000, 0.000000000000000000, 7.000000000000000000 ) ) ;
#209 = ORIENTED_EDGE ( 'NONE', *, *, #35, .T. ) ;
#210 = ADVANCED_FACE ( 'NONE', ( #190 ), #292, .F. ) ;
#211 = CARTESIAN_POINT ( 'NONE',  ( 12.00000000000000178, 1.469576158976824144E-15, 0.000000000000000000 ) ) ;
#212 = DIRECTION ( 'NONE',  ( 1.000000000000000000, 0.000000000000000000, -0.000000000000000000 ) ) ;
#213 = VERTEX_POINT ( 'NONE', #73 ) ;
#214 = FACE_OUTER_BOUND ( 'NONE', #257, .T. ) ;
#215 = CARTESIAN_POINT ( 'NONE',  ( -9.000000000000000000, 0.000000000000000000, 407.0000000000000000 ) ) ;
#216 = CIRCLE ( 'NONE', #23, 9.000000000000000000 ) ;
#217 = ADVANCED_FACE ( 'NONE', ( #169, #265 ), #237, .T. ) ;
#218 = CARTESIAN_POINT ( 'NONE',  ( 0.000000000000000000, 0.000000000000000000, 7.000000000000000000 ) ) ;
#219 = CARTESIAN_POINT ( 'NONE',  ( 9.199999999999999289, 0.000000000000000000, 6.999999999999992006 ) ) ;
#220 = DIRECTION ( 'NONE',  ( 1.000000000000000000, 0.000000000000000000, 0.000000000000000000 ) ) ;
#221 = DIRECTION ( 'NONE',  ( 0.000000000000000000, 0.000000000000000000, -1.000000000000000000 ) ) ;
#222 = EDGE_CURVE ( 'NONE', #196, #62, #127, .T. ) ;
#223 = DIRECTION ( 'NONE',  ( 0.000000000000000000, 0.000000000000000000, 1.000000000000000000 ) ) ;
#224 = DIRECTION ( 'NONE',  ( 1.000000000000000000, 0.000000000000000000, -0.000000000000000000 ) ) ;
#225 = VERTEX_POINT ( 'NONE', #192 ) ;
#226 = ADVANCED_FACE ( 'NONE', ( #120 ), #186, .T. ) ;
#227 = AXIS2_PLACEMENT_3D ( 'NONE', #262, #46, #63 ) ;
#228 = PERSON_AND_ORGANIZATION_ROLE ( 'creator' ) ;
#229 = CALENDAR_DATE ( 2022, 7, 7 ) ;
#230 = EDGE_CURVE ( 'NONE', #270, #225, #122, .T. ) ;
#231 = APPROVAL_ROLE ( '' ) ;
#232 = CYLINDRICAL_SURFACE ( 'NONE', #20, 9.000000000000000000 ) ;
#233 =( GEOMETRIC_REPRESENTATION_CONTEXT ( 3 ) GLOBAL_UNCERTAINTY_ASSIGNED_CONTEXT ( ( #17 ) ) GLOBAL_UNIT_ASSIGNED_CONTEXT ( ( #236, #94, #185 ) ) REPRESENTATION_CONTEXT ( 'NONE', 'WORKASPACE' ) );
#234 = CC_DESIGN_APPROVAL ( #238, ( #80 ) ) ;
#235 = ORIENTED_EDGE ( 'NONE', *, *, #40, .T. ) ;
#236 =( LENGTH_UNIT ( ) NAMED_UNIT ( * ) SI_UNIT ( .MILLI., .METRE. ) );
#237 = PLANE ( 'NONE',  #153 ) ;
#238 = APPROVAL ( #57, 'NEURÈENÝ' ) ;
#239 = CARTESIAN_POINT ( 'NONE',  ( 0.000000000000000000, 0.000000000000000000, 0.000000000000000000 ) ) ;
#240 = VECTOR ( 'NONE', #44, 1000.000000000000000 ) ;
#241 = DIRECTION ( 'NONE',  ( 1.000000000000000000, 0.000000000000000000, 0.000000000000000000 ) ) ;
#242 = DIRECTION ( 'NONE',  ( 0.000000000000000000, 0.000000000000000000, 1.000000000000000000 ) ) ;
#243 = DIRECTION ( 'NONE',  ( -0.000000000000000000, -0.000000000000000000, -1.000000000000000000 ) ) ;
#244 = EDGE_CURVE ( 'NONE', #213, #92, #179, .T. ) ;
#245 = AXIS2_PLACEMENT_3D ( 'NONE', #162, #66, #5 ) ;
#246 = ORIENTED_EDGE ( 'NONE', *, *, #302, .F. ) ;
#247 = DIRECTION ( 'NONE',  ( 0.000000000000000000, 0.000000000000000000, 1.000000000000000000 ) ) ;
#248 = CARTESIAN_POINT ( 'NONE',  ( 12.00000000000000178, 1.469576158976824144E-15, 7.000000000000000000 ) ) ;
#249 = AXIS2_PLACEMENT_3D ( 'NONE', #141, #205, #90 ) ;
#250 = CALENDAR_DATE ( 2022, 7, 7 ) ;
#251 = APPROVAL_ROLE ( '' ) ;
#252 = CC_DESIGN_PERSON_AND_ORGANIZATION_ASSIGNMENT ( #116, #228, ( #207 ) ) ;
#253 = APPROVAL_ROLE ( '' ) ;
#254 = AXIS2_PLACEMENT_3D ( 'NONE', #11, #223, #296 ) ;
#255 = CYLINDRICAL_SURFACE ( 'NONE', #33, 12.00000000000000178 ) ;
#256 = DIRECTION ( 'NONE',  ( 0.000000000000000000, 0.000000000000000000, 1.000000000000000000 ) ) ;
#257 = EDGE_LOOP ( 'NONE', ( #137, #263, #79, #13 ) ) ;
#258 = PERSON_AND_ORGANIZATION ( #289, #303 ) ;
#259 = DIRECTION ( 'NONE',  ( 1.000000000000000000, 0.000000000000000000, 0.000000000000000000 ) ) ;
#260 = APPROVAL ( #272, 'NEURÈENÝ' ) ;
#261 = APPLICATION_PROTOCOL_DEFINITION ( 'international standard', 'config_control_design', 1994, #135 ) ;
#262 = CARTESIAN_POINT ( 'NONE',  ( 0.000000000000000000, 0.000000000000000000, 7.000000000000000000 ) ) ;
#263 = ORIENTED_EDGE ( 'NONE', *, *, #163, .F. ) ;
#264 = CARTESIAN_POINT ( 'NONE',  ( 12.00000000000000178, 1.469576158976824144E-15, 7.000000000000000000 ) ) ;
#265 = FACE_OUTER_BOUND ( 'NONE', #41, .T. ) ;
#266 = CC_DESIGN_PERSON_AND_ORGANIZATION_ASSIGNMENT ( #36, #89, ( #207 ) ) ;
#267 = DIRECTION ( 'NONE',  ( 1.000000000000000000, 0.000000000000000000, 0.000000000000000000 ) ) ;
#268 = ORIENTED_EDGE ( 'NONE', *, *, #109, .T. ) ;
#269 = CLOSED_SHELL ( 'NONE', ( #98, #226, #149, #288, #217, #210, #293, #24, #279 ) ) ;
#270 = VERTEX_POINT ( 'NONE', #4 ) ;
#271 = ORIENTED_EDGE ( 'NONE', *, *, #40, .F. ) ;
#272 = APPROVAL_STATUS ( 'not_yet_approved' ) ;
#273 = VERTEX_POINT ( 'NONE', #211 ) ;
#274 = PERSON_AND_ORGANIZATION ( #289, #303 ) ;
#275 = CIRCLE ( 'NONE', #191, 9.000000000000000000 ) ;
#276 = PERSON_AND_ORGANIZATION_ROLE ( 'classification_officer' ) ;
#277 = DATE_AND_TIME ( #178, #42 ) ;
#278 = AXIS2_PLACEMENT_3D ( 'NONE', #103, #188, #171 ) ;
#279 = ADVANCED_FACE ( 'NONE', ( #305 ), #91, .F. ) ;
#280 = ORIENTED_EDGE ( 'NONE', *, *, #222, .T. ) ;
#281 = CARTESIAN_POINT ( 'NONE',  ( 0.000000000000000000, 0.000000000000000000, 0.000000000000000000 ) ) ;
#282 = ORIENTED_EDGE ( 'NONE', *, *, #302, .T. ) ;
#283 = CARTESIAN_POINT ( 'NONE',  ( 0.000000000000000000, 0.000000000000000000, 407.0000000000000000 ) ) ;
#284 = VECTOR ( 'NONE', #297, 1000.000000000000000 ) ;
#285 = LOCAL_TIME ( 11, 35, 45.00000000000000000, #84 ) ;
#286 = DIRECTION ( 'NONE',  ( 1.000000000000000000, 0.000000000000000000, 0.000000000000000000 ) ) ;
#287 = DIRECTION ( 'NONE',  ( -0.000000000000000000, -0.000000000000000000, -1.000000000000000000 ) ) ;
#288 = ADVANCED_FACE ( 'NONE', ( #43 ), #255, .T. ) ;
#289 = PERSON ( 'NEURÈENÝ', 'NEURÈENÝ', 'NEURÈENÝ', ('NEURÈENÝ'), ('NEURÈENÝ'), ('NEURÈENÝ') ) ;
#290 = DIRECTION ( 'NONE',  ( 0.000000000000000000, 0.000000000000000000, 1.000000000000000000 ) ) ;
#291 = ORIENTED_EDGE ( 'NONE', *, *, #156, .F. ) ;
#292 = PLANE ( 'NONE',  #278 ) ;
#293 = ADVANCED_FACE ( 'NONE', ( #214 ), #232, .T. ) ;
#294 = PRODUCT_DEFINITION_SHAPE ( 'NONE', 'NONE',  #3 ) ;
#295 = DIRECTION ( 'NONE',  ( -1.000000000000000000, 0.000000000000000000, 0.000000000000000000 ) ) ;
#296 = DIRECTION ( 'NONE',  ( 1.000000000000000000, 0.000000000000000000, 0.000000000000000000 ) ) ;
#297 = DIRECTION ( 'NONE',  ( -0.000000000000000000, -0.000000000000000000, -1.000000000000000000 ) ) ;
#298 = AXIS2_PLACEMENT_3D ( 'NONE', #49, #126, #7 ) ;
#299 = LINE ( 'NONE', #248, #284 ) ;
#300 = EDGE_LOOP ( 'NONE', ( #271, #280, #64, #96 ) ) ;
#301 = PERSON_AND_ORGANIZATION ( #289, #303 ) ;
#302 = EDGE_CURVE ( 'NONE', #150, #106, #168, .T. ) ;
#303 = ORGANIZATION ( 'NEURÈENÝ', 'NEURÈENÝ', '' ) ;
#304 = SECURITY_CLASSIFICATION_LEVEL ( 'unclassified' ) ;
#305 = FACE_OUTER_BOUND ( 'NONE', #93, .T. ) ;
#306 = AXIS2_PLACEMENT_3D ( 'NONE', #124, #139, #267 ) ;
#307 = CARTESIAN_POINT ( 'NONE',  ( 0.000000000000000000, 0.000000000000000000, 7.000000000000000000 ) ) ;
ENDSEC;
END-ISO-10303-21;
