ISO-10303-21;
HEADER;
FILE_DESCRIPTION (( 'STEP AP203' ),
    '1' );
FILE_NAME ('f823.STEP',
    '2022-07-07T09:57:57',
    ( '' ),
    ( '' ),
    'SwSTEP 2.0',
    'SolidWorks 2019',
    '' );
FILE_SCHEMA (( 'CONFIG_CONTROL_DESIGN' ));
ENDSEC;

DATA;
#1 = CIRCLE ( 'NONE', #61, 4.250000000000000000 ) ;
#2 = ADVANCED_FACE ( 'NONE', ( #230 ), #129, .T. ) ;
#3 = CARTESIAN_POINT ( 'NONE',  ( -4.250000000000000000, 0.000000000000000000, 805.0000000000000000 ) ) ;
#4 = CALENDAR_DATE ( 2022, 7, 7 ) ;
#5 = EDGE_LOOP ( 'NONE', ( #119, #263, #76, #59 ) ) ;
#6 = DIRECTION ( 'NONE',  ( 1.000000000000000000, 0.000000000000000000, 0.000000000000000000 ) ) ;
#7 = CLOSED_SHELL ( 'NONE', ( #24, #259, #15, #46, #212, #128, #2, #51, #72 ) ) ;
#8 = EDGE_LOOP ( 'NONE', ( #167, #70, #268, #255 ) ) ;
#9 = LINE ( 'NONE', #97, #124 ) ;
#10 = DIRECTION ( 'NONE',  ( 0.000000000000000000, 0.000000000000000000, 1.000000000000000000 ) ) ;
#11 = COORDINATED_UNIVERSAL_TIME_OFFSET ( 1, 0, .AHEAD. ) ;
#12 = ORIENTED_EDGE ( 'NONE', *, *, #216, .F. ) ;
#13 = ORIENTED_EDGE ( 'NONE', *, *, #57, .F. ) ;
#14 = CARTESIAN_POINT ( 'NONE',  ( 4.450000000000000178, 0.000000000000000000, 4.999999999999991118 ) ) ;
#15 = ADVANCED_FACE ( 'NONE', ( #174 ), #102, .T. ) ;
#16 = VERTEX_POINT ( 'NONE', #44 ) ;
#17 = AXIS2_PLACEMENT_3D ( 'NONE', #39, #101, #221 ) ;
#18 = CIRCLE ( 'NONE', #17, 4.450000000000000178 ) ;
#19 = COORDINATED_UNIVERSAL_TIME_OFFSET ( 1, 0, .AHEAD. ) ;
#20 = CIRCLE ( 'NONE', #89, 4.250000000000000000 ) ;
#21 = FACE_OUTER_BOUND ( 'NONE', #291, .T. ) ;
#22 = ORIENTED_EDGE ( 'NONE', *, *, #106, .T. ) ;
#23 = AXIS2_PLACEMENT_3D ( 'NONE', #304, #158, #247 ) ;
#24 = ADVANCED_FACE ( 'NONE', ( #21 ), #211, .F. ) ;
#25 = VERTEX_POINT ( 'NONE', #178 ) ;
#26 = APPLICATION_PROTOCOL_DEFINITION ( 'international standard', 'config_control_design', 1994, #239 ) ;
#27 = EDGE_CURVE ( 'NONE', #25, #217, #231, .T. ) ;
#28 = CC_DESIGN_PERSON_AND_ORGANIZATION_ASSIGNMENT ( #219, #151, ( #95 ) ) ;
#29 = APPROVAL ( #132, 'NEURÈENÝ' ) ;
#30 = APPROVAL ( #267, 'NEURÈENÝ' ) ;
#31 = ADVANCED_BREP_SHAPE_REPRESENTATION ( 'f823', ( #305, #143 ), #184 ) ;
#32 = AXIS2_PLACEMENT_3D ( 'NONE', #227, #214, #225 ) ;
#33 = CIRCLE ( 'NONE', #236, 4.450000000000000178 ) ;
#34 = VERTEX_POINT ( 'NONE', #82 ) ;
#35 = DIRECTION ( 'NONE',  ( 1.000000000000000000, 0.000000000000000000, 0.000000000000000000 ) ) ;
#36 = EDGE_LOOP ( 'NONE', ( #49, #93 ) ) ;
#37 = CARTESIAN_POINT ( 'NONE',  ( 0.000000000000000000, 0.000000000000000000, 5.199999999999982414 ) ) ;
#38 = DATE_AND_TIME ( #242, #276 ) ;
#39 = CARTESIAN_POINT ( 'NONE',  ( 0.000000000000000000, 0.000000000000000000, 5.000000000000000000 ) ) ;
#40 = PERSON_AND_ORGANIZATION ( #208, #286 ) ;
#41 = DIRECTION ( 'NONE',  ( 1.000000000000000000, 0.000000000000000000, 0.000000000000000000 ) ) ;
#42 = FACE_OUTER_BOUND ( 'NONE', #100, .T. ) ;
#43 = PERSON_AND_ORGANIZATION ( #208, #286 ) ;
#44 = CARTESIAN_POINT ( 'NONE',  ( 7.000000000000000000, 8.572527594031473190E-16, 5.000000000000000000 ) ) ;
#45 = APPROVAL_PERSON_ORGANIZATION ( #113, #282, #147 ) ;
#46 = ADVANCED_FACE ( 'NONE', ( #157 ), #114, .T. ) ;
#47 = EDGE_LOOP ( 'NONE', ( #192, #126 ) ) ;
#48 = DIRECTION ( 'NONE',  ( 0.000000000000000000, 0.000000000000000000, 1.000000000000000000 ) ) ;
#49 = ORIENTED_EDGE ( 'NONE', *, *, #156, .F. ) ;
#50 =( LENGTH_UNIT ( ) NAMED_UNIT ( * ) SI_UNIT ( .MILLI., .METRE. ) );
#51 = ADVANCED_FACE ( 'NONE', ( #301 ), #246, .T. ) ;
#52 = APPROVAL_PERSON_ORGANIZATION ( #43, #29, #205 ) ;
#53 = CC_DESIGN_PERSON_AND_ORGANIZATION_ASSIGNMENT ( #115, #273, ( #140 ) ) ;
#54 = CIRCLE ( 'NONE', #224, 0.1999999999999996503 ) ;
#55 = ORIENTED_EDGE ( 'NONE', *, *, #179, .T. ) ;
#56 = CARTESIAN_POINT ( 'NONE',  ( 7.000000000000000000, 8.572527594031473190E-16, 0.000000000000000000 ) ) ;
#57 = EDGE_CURVE ( 'NONE', #16, #265, #180, .T. ) ;
#58 = SHAPE_DEFINITION_REPRESENTATION ( #165, #31 ) ;
#59 = ORIENTED_EDGE ( 'NONE', *, *, #106, .F. ) ;
#60 = DIRECTION ( 'NONE',  ( 1.000000000000000000, 0.000000000000000000, 0.000000000000000000 ) ) ;
#61 = AXIS2_PLACEMENT_3D ( 'NONE', #66, #300, #232 ) ;
#62 = DIRECTION ( 'NONE',  ( 1.224646799147353207E-16, 1.000000000000000000, -0.000000000000000000 ) ) ;
#63 = CARTESIAN_POINT ( 'NONE',  ( 0.000000000000000000, 0.000000000000000000, 5.000000000000000000 ) ) ;
#64 = APPLICATION_PROTOCOL_DEFINITION ( 'international standard', 'config_control_design', 1994, #209 ) ;
#65 = DIRECTION ( 'NONE',  ( -0.000000000000000000, -0.000000000000000000, -1.000000000000000000 ) ) ;
#66 = CARTESIAN_POINT ( 'NONE',  ( 0.000000000000000000, 0.000000000000000000, 5.199999999999982414 ) ) ;
#67 = CARTESIAN_POINT ( 'NONE',  ( 0.000000000000000000, 0.000000000000000000, 805.0000000000000000 ) ) ;
#68 = CARTESIAN_POINT ( 'NONE',  ( 0.000000000000000000, 0.000000000000000000, 0.000000000000000000 ) ) ;
#69 = CIRCLE ( 'NONE', #139, 0.1999999999999996503 ) ;
#70 = ORIENTED_EDGE ( 'NONE', *, *, #210, .F. ) ;
#71 = PERSON_AND_ORGANIZATION_ROLE ( 'creator' ) ;
#72 = ADVANCED_FACE ( 'NONE', ( #42 ), #206, .F. ) ;
#73 = CARTESIAN_POINT ( 'NONE',  ( 4.450000000000000178, 0.000000000000000000, 5.199999999999982414 ) ) ;
#74 = AXIS2_PLACEMENT_3D ( 'NONE', #67, #306, #159 ) ;
#75 = APPROVAL_DATE_TIME ( #226, #30 ) ;
#76 = ORIENTED_EDGE ( 'NONE', *, *, #297, .T. ) ;
#77 = DIRECTION ( 'NONE',  ( -0.000000000000000000, -0.000000000000000000, -1.000000000000000000 ) ) ;
#78 = ORIENTED_EDGE ( 'NONE', *, *, #130, .F. ) ;
#79 = CARTESIAN_POINT ( 'NONE',  ( 0.000000000000000000, 0.000000000000000000, 5.000000000000000000 ) ) ;
#80 = DIRECTION ( 'NONE',  ( 1.000000000000000000, 0.000000000000000000, -0.000000000000000000 ) ) ;
#81 = ORIENTED_EDGE ( 'NONE', *, *, #112, .F. ) ;
#82 = CARTESIAN_POINT ( 'NONE',  ( -4.450000000000000178, 5.449678256205721784E-16, 4.999999999999991118 ) ) ;
#83 = APPROVAL_STATUS ( 'not_yet_approved' ) ;
#84 = DIRECTION ( 'NONE',  ( 1.000000000000000000, 0.000000000000000000, 0.000000000000000000 ) ) ;
#85 = CC_DESIGN_DATE_AND_TIME_ASSIGNMENT ( #200, #299, ( #138 ) ) ;
#86 = CARTESIAN_POINT ( 'NONE',  ( -7.000000000000000000, 0.000000000000000000, 5.000000000000000000 ) ) ;
#87 = CARTESIAN_POINT ( 'NONE',  ( 0.000000000000000000, 0.000000000000000000, 805.0000000000000000 ) ) ;
#88 = CC_DESIGN_APPROVAL ( #282, ( #95 ) ) ;
#89 = AXIS2_PLACEMENT_3D ( 'NONE', #284, #241, #6 ) ;
#90 = AXIS2_PLACEMENT_3D ( 'NONE', #296, #275, #35 ) ;
#91 = EDGE_CURVE ( 'NONE', #152, #25, #234, .T. ) ;
#92 = DIRECTION ( 'NONE',  ( 0.000000000000000000, 0.000000000000000000, 1.000000000000000000 ) ) ;
#93 = ORIENTED_EDGE ( 'NONE', *, *, #98, .F. ) ;
#94 = DIRECTION ( 'NONE',  ( 0.000000000000000000, 0.000000000000000000, -1.000000000000000000 ) ) ;
#95 = PRODUCT_DEFINITION_FORMATION_WITH_SPECIFIED_SOURCE ( 'LIBOVOLNÝ', '', #140, .NOT_KNOWN. ) ;
#96 = VERTEX_POINT ( 'NONE', #168 ) ;
#97 = CARTESIAN_POINT ( 'NONE',  ( 7.000000000000000000, 8.572527594031473190E-16, 5.000000000000000000 ) ) ;
#98 = EDGE_CURVE ( 'NONE', #220, #96, #163, .T. ) ;
#99 = PERSON_AND_ORGANIZATION ( #208, #286 ) ;
#100 = EDGE_LOOP ( 'NONE', ( #169, #288, #253, #243 ) ) ;
#101 = DIRECTION ( 'NONE',  ( -0.000000000000000000, -0.000000000000000000, -1.000000000000000000 ) ) ;
#102 = CYLINDRICAL_SURFACE ( 'NONE', #222, 7.000000000000000000 ) ;
#103 = ORIENTED_EDGE ( 'NONE', *, *, #98, .T. ) ;
#104 = PLANE ( 'NONE',  #144 ) ;
#105 = PERSON_AND_ORGANIZATION_ROLE ( 'classification_officer' ) ;
#106 = EDGE_CURVE ( 'NONE', #152, #195, #120, .T. ) ;
#107 = DIRECTION ( 'NONE',  ( 0.000000000000000000, 0.000000000000000000, 1.000000000000000000 ) ) ;
#108 = LOCAL_TIME ( 11, 57, 57.00000000000000000, #198 ) ;
#109 = VECTOR ( 'NONE', #127, 1000.000000000000000 ) ;
#110 = CALENDAR_DATE ( 2022, 7, 7 ) ;
#111 = CARTESIAN_POINT ( 'NONE',  ( 4.250000000000000000, 5.204748896376250699E-16, 805.0000000000000000 ) ) ;
#112 = EDGE_CURVE ( 'NONE', #195, #217, #281, .T. ) ;
#113 = PERSON_AND_ORGANIZATION ( #208, #286 ) ;
#114 = CYLINDRICAL_SURFACE ( 'NONE', #270, 7.000000000000000000 ) ;
#115 = PERSON_AND_ORGANIZATION ( #208, #286 ) ;
#116 = VERTEX_POINT ( 'NONE', #14 ) ;
#117 = AXIS2_PLACEMENT_3D ( 'NONE', #229, #107, #199 ) ;
#118 = AXIS2_PLACEMENT_3D ( 'NONE', #87, #277, #181 ) ;
#119 = ORIENTED_EDGE ( 'NONE', *, *, #179, .F. ) ;
#120 = LINE ( 'NONE', #266, #109 ) ;
#121 = ORIENTED_EDGE ( 'NONE', *, *, #91, .F. ) ;
#122 = DIRECTION ( 'NONE',  ( 1.000000000000000000, 0.000000000000000000, -0.000000000000000000 ) ) ;
#123 = AXIS2_PLACEMENT_3D ( 'NONE', #162, #201, #274 ) ;
#124 = VECTOR ( 'NONE', #77, 1000.000000000000000 ) ;
#125 = CARTESIAN_POINT ( 'NONE',  ( 0.000000000000000000, 0.000000000000000000, 5.000000000000000000 ) ) ;
#126 = ORIENTED_EDGE ( 'NONE', *, *, #251, .T. ) ;
#127 = DIRECTION ( 'NONE',  ( -0.000000000000000000, -0.000000000000000000, -1.000000000000000000 ) ) ;
#128 = ADVANCED_FACE ( 'NONE', ( #292 ), #104, .F. ) ;
#129 = CYLINDRICAL_SURFACE ( 'NONE', #74, 4.250000000000000000 ) ;
#130 = EDGE_CURVE ( 'NONE', #116, #34, #18, .T. ) ;
#131 = CARTESIAN_POINT ( 'NONE',  ( 0.000000000000000000, 0.000000000000000000, 5.000000000000000000 ) ) ;
#132 = APPROVAL_STATUS ( 'not_yet_approved' ) ;
#133 = DIRECTION ( 'NONE',  ( 0.000000000000000000, 0.000000000000000000, 1.000000000000000000 ) ) ;
#134 = MECHANICAL_CONTEXT ( 'NONE', #239, 'mechanical' ) ;
#135 = ORIENTED_EDGE ( 'NONE', *, *, #183, .F. ) ;
#136 = CC_DESIGN_DATE_AND_TIME_ASSIGNMENT ( #38, #171, ( #250 ) ) ;
#137 = EDGE_CURVE ( 'NONE', #16, #220, #9, .T. ) ;
#138 = PRODUCT_DEFINITION ( 'NEZNÁMÝ', '', #95, #141 ) ;
#139 = AXIS2_PLACEMENT_3D ( 'NONE', #73, #218, #94 ) ;
#140 = PRODUCT ( 'f823', 'f823', '', ( #134 ) ) ;
#141 = DESIGN_CONTEXT ( 'detailed design', #209, 'design' ) ;
#142 = AXIS2_PLACEMENT_3D ( 'NONE', #37, #148, #188 ) ;
#143 = AXIS2_PLACEMENT_3D ( 'NONE', #68, #48, #256 ) ;
#144 = AXIS2_PLACEMENT_3D ( 'NONE', #196, #287, #122 ) ;
#145 = APPROVAL_DATE_TIME ( #215, #282 ) ;
#146 = CYLINDRICAL_SURFACE ( 'NONE', #23, 4.250000000000000000 ) ;
#147 = APPROVAL_ROLE ( '' ) ;
#148 = DIRECTION ( 'NONE',  ( 0.000000000000000000, 0.000000000000000000, 1.000000000000000000 ) ) ;
#149 = ORIENTED_EDGE ( 'NONE', *, *, #91, .T. ) ;
#150 = FACE_OUTER_BOUND ( 'NONE', #189, .T. ) ;
#151 = PERSON_AND_ORGANIZATION_ROLE ( 'design_supplier' ) ;
#152 = VERTEX_POINT ( 'NONE', #3 ) ;
#153 = DIRECTION ( 'NONE',  ( -0.000000000000000000, -0.000000000000000000, -1.000000000000000000 ) ) ;
#154 = DIRECTION ( 'NONE',  ( -1.000000000000000000, 0.000000000000000000, 0.000000000000000000 ) ) ;
#155 = ORIENTED_EDGE ( 'NONE', *, *, #27, .F. ) ;
#156 = EDGE_CURVE ( 'NONE', #96, #220, #278, .T. ) ;
#157 = FACE_OUTER_BOUND ( 'NONE', #8, .T. ) ;
#158 = DIRECTION ( 'NONE',  ( -0.000000000000000000, -0.000000000000000000, -1.000000000000000000 ) ) ;
#159 = DIRECTION ( 'NONE',  ( -1.000000000000000000, 0.000000000000000000, 0.000000000000000000 ) ) ;
#160 = LOCAL_TIME ( 11, 57, 57.00000000000000000, #290 ) ;
#161 = CALENDAR_DATE ( 2022, 7, 7 ) ;
#162 = CARTESIAN_POINT ( 'NONE',  ( 0.000000000000000000, 0.000000000000000000, 5.000000000000000000 ) ) ;
#163 = CIRCLE ( 'NONE', #32, 7.000000000000000000 ) ;
#164 = CC_DESIGN_PERSON_AND_ORGANIZATION_ASSIGNMENT ( #202, #71, ( #138 ) ) ;
#165 = PRODUCT_DEFINITION_SHAPE ( 'NONE', 'NONE',  #138 ) ;
#166 = DIRECTION ( 'NONE',  ( -0.000000000000000000, -0.000000000000000000, -1.000000000000000000 ) ) ;
#167 = ORIENTED_EDGE ( 'NONE', *, *, #137, .F. ) ;
#168 = CARTESIAN_POINT ( 'NONE',  ( -7.000000000000000000, 0.000000000000000000, 0.000000000000000000 ) ) ;
#169 = ORIENTED_EDGE ( 'NONE', *, *, #187, .F. ) ;
#170 = FACE_BOUND ( 'NONE', #47, .T. ) ;
#171 = DATE_TIME_ROLE ( 'classification_date' ) ;
#172 = ORIENTED_EDGE ( 'NONE', *, *, #137, .T. ) ;
#173 = LINE ( 'NONE', #186, #185 ) ;
#174 = FACE_OUTER_BOUND ( 'NONE', #293, .T. ) ;
#175 = ORIENTED_EDGE ( 'NONE', *, *, #57, .T. ) ;
#176 = CARTESIAN_POINT ( 'NONE',  ( 0.000000000000000000, 0.000000000000000000, 5.199999999999982414 ) ) ;
#177 = APPROVAL_DATE_TIME ( #182, #29 ) ;
#178 = CARTESIAN_POINT ( 'NONE',  ( 4.250000000000000000, 5.204748896376250699E-16, 805.0000000000000000 ) ) ;
#179 = EDGE_CURVE ( 'NONE', #25, #152, #20, .T. ) ;
#180 = CIRCLE ( 'NONE', #123, 7.000000000000000000 ) ;
#181 = DIRECTION ( 'NONE',  ( 1.000000000000000000, 0.000000000000000000, -0.000000000000000000 ) ) ;
#182 = DATE_AND_TIME ( #161, #223 ) ;
#183 = EDGE_CURVE ( 'NONE', #217, #116, #69, .T. ) ;
#184 =( GEOMETRIC_REPRESENTATION_CONTEXT ( 3 ) GLOBAL_UNCERTAINTY_ASSIGNED_CONTEXT ( ( #204 ) ) GLOBAL_UNIT_ASSIGNED_CONTEXT ( ( #50, #254, #252 ) ) REPRESENTATION_CONTEXT ( 'NONE', 'WORKASPACE' ) );
#185 = VECTOR ( 'NONE', #166, 1000.000000000000000 ) ;
#186 = CARTESIAN_POINT ( 'NONE',  ( -7.000000000000000000, 0.000000000000000000, 5.000000000000000000 ) ) ;
#187 = EDGE_CURVE ( 'NONE', #195, #34, #54, .T. ) ;
#188 = DIRECTION ( 'NONE',  ( 1.000000000000000000, 0.000000000000000000, 0.000000000000000000 ) ) ;
#189 = EDGE_LOOP ( 'NONE', ( #207, #175 ) ) ;
#190 = CARTESIAN_POINT ( 'NONE',  ( -4.450000000000000178, 5.449678256205721784E-16, 5.199999999999982414 ) ) ;
#191 = PERSON_AND_ORGANIZATION_ROLE ( 'creator' ) ;
#192 = ORIENTED_EDGE ( 'NONE', *, *, #130, .T. ) ;
#193 = DIRECTION ( 'NONE',  ( 0.000000000000000000, 0.000000000000000000, 1.000000000000000000 ) ) ;
#194 = CARTESIAN_POINT ( 'NONE',  ( 0.000000000000000000, 0.000000000000000000, 5.000000000000000000 ) ) ;
#195 = VERTEX_POINT ( 'NONE', #289 ) ;
#196 = CARTESIAN_POINT ( 'NONE',  ( 0.000000000000000000, 0.000000000000000000, 0.000000000000000000 ) ) ;
#197 = CC_DESIGN_SECURITY_CLASSIFICATION ( #250, ( #95 ) ) ;
#198 = COORDINATED_UNIVERSAL_TIME_OFFSET ( 1, 0, .AHEAD. ) ;
#199 = DIRECTION ( 'NONE',  ( 1.000000000000000000, 0.000000000000000000, 0.000000000000000000 ) ) ;
#200 = DATE_AND_TIME ( #110, #303 ) ;
#201 = DIRECTION ( 'NONE',  ( 0.000000000000000000, 0.000000000000000000, 1.000000000000000000 ) ) ;
#202 = PERSON_AND_ORGANIZATION ( #208, #286 ) ;
#203 = DIRECTION ( 'NONE',  ( -0.000000000000000000, -0.000000000000000000, -1.000000000000000000 ) ) ;
#204 = UNCERTAINTY_MEASURE_WITH_UNIT (LENGTH_MEASURE( 1.000000000000000082E-05 ), #50, 'distance_accuracy_value', 'NONE');
#205 = APPROVAL_ROLE ( '' ) ;
#206 = TOROIDAL_SURFACE ( 'NONE', #117, 4.450000000000000178, 0.2000000000000000111 ) ;
#207 = ORIENTED_EDGE ( 'NONE', *, *, #210, .T. ) ;
#208 = PERSON ( 'NEURÈENÝ', 'NEURÈENÝ', 'NEURÈENÝ', ('NEURÈENÝ'), ('NEURÈENÝ'), ('NEURÈENÝ') ) ;
#209 = APPLICATION_CONTEXT ( 'configuration controlled 3d designs of mechanical parts and assemblies' ) ;
#210 = EDGE_CURVE ( 'NONE', #265, #16, #258, .T. ) ;
#211 = TOROIDAL_SURFACE ( 'NONE', #249, 4.450000000000000178, 0.2000000000000000111 ) ;
#212 = ADVANCED_FACE ( 'NONE', ( #170, #150 ), #244, .T. ) ;
#213 = CC_DESIGN_APPROVAL ( #29, ( #138 ) ) ;
#214 = DIRECTION ( 'NONE',  ( 0.000000000000000000, 0.000000000000000000, 1.000000000000000000 ) ) ;
#215 = DATE_AND_TIME ( #4, #108 ) ;
#216 = EDGE_CURVE ( 'NONE', #265, #96, #173, .T. ) ;
#217 = VERTEX_POINT ( 'NONE', #269 ) ;
#218 = DIRECTION ( 'NONE',  ( 0.000000000000000000, -1.000000000000000000, 0.000000000000000000 ) ) ;
#219 = PERSON_AND_ORGANIZATION ( #208, #286 ) ;
#220 = VERTEX_POINT ( 'NONE', #56 ) ;
#221 = DIRECTION ( 'NONE',  ( 1.000000000000000000, 0.000000000000000000, 0.000000000000000000 ) ) ;
#222 = AXIS2_PLACEMENT_3D ( 'NONE', #194, #272, #248 ) ;
#223 = LOCAL_TIME ( 11, 57, 57.00000000000000000, #19 ) ;
#224 = AXIS2_PLACEMENT_3D ( 'NONE', #190, #62, #245 ) ;
#225 = DIRECTION ( 'NONE',  ( 1.000000000000000000, 0.000000000000000000, 0.000000000000000000 ) ) ;
#226 = DATE_AND_TIME ( #228, #160 ) ;
#227 = CARTESIAN_POINT ( 'NONE',  ( 0.000000000000000000, 0.000000000000000000, 0.000000000000000000 ) ) ;
#228 = CALENDAR_DATE ( 2022, 7, 7 ) ;
#229 = CARTESIAN_POINT ( 'NONE',  ( 0.000000000000000000, 0.000000000000000000, 5.199999999999982414 ) ) ;
#230 = FACE_OUTER_BOUND ( 'NONE', #233, .T. ) ;
#231 = LINE ( 'NONE', #111, #302 ) ;
#232 = DIRECTION ( 'NONE',  ( 1.000000000000000000, 0.000000000000000000, 0.000000000000000000 ) ) ;
#233 = EDGE_LOOP ( 'NONE', ( #155, #121, #22, #294 ) ) ;
#234 = CIRCLE ( 'NONE', #90, 4.250000000000000000 ) ;
#235 = CC_DESIGN_PERSON_AND_ORGANIZATION_ASSIGNMENT ( #99, #191, ( #95 ) ) ;
#236 = AXIS2_PLACEMENT_3D ( 'NONE', #63, #153, #41 ) ;
#237 = AXIS2_PLACEMENT_3D ( 'NONE', #264, #92, #60 ) ;
#238 = DIRECTION ( 'NONE',  ( 1.000000000000000000, 0.000000000000000000, 0.000000000000000000 ) ) ;
#239 = APPLICATION_CONTEXT ( 'configuration controlled 3d designs of mechanical parts and assemblies' ) ;
#240 = EDGE_LOOP ( 'NONE', ( #149, #55 ) ) ;
#241 = DIRECTION ( 'NONE',  ( 0.000000000000000000, 0.000000000000000000, 1.000000000000000000 ) ) ;
#242 = CALENDAR_DATE ( 2022, 7, 7 ) ;
#243 = ORIENTED_EDGE ( 'NONE', *, *, #251, .F. ) ;
#244 = PLANE ( 'NONE',  #298 ) ;
#245 = DIRECTION ( 'NONE',  ( -1.000000000000000000, 1.224646799147353454E-16, 0.000000000000000000 ) ) ;
#246 = PLANE ( 'NONE',  #118 ) ;
#247 = DIRECTION ( 'NONE',  ( -1.000000000000000000, 0.000000000000000000, 0.000000000000000000 ) ) ;
#248 = DIRECTION ( 'NONE',  ( -1.000000000000000000, 0.000000000000000000, 0.000000000000000000 ) ) ;
#249 = AXIS2_PLACEMENT_3D ( 'NONE', #176, #133, #84 ) ;
#250 = SECURITY_CLASSIFICATION ( '', '', #285 ) ;
#251 = EDGE_CURVE ( 'NONE', #34, #116, #33, .T. ) ;
#252 =( NAMED_UNIT ( * ) SI_UNIT ( $, .STERADIAN. ) SOLID_ANGLE_UNIT ( ) );
#253 = ORIENTED_EDGE ( 'NONE', *, *, #183, .T. ) ;
#254 =( NAMED_UNIT ( * ) PLANE_ANGLE_UNIT ( ) SI_UNIT ( $, .RADIAN. ) );
#255 = ORIENTED_EDGE ( 'NONE', *, *, #156, .T. ) ;
#256 = DIRECTION ( 'NONE',  ( 1.000000000000000000, 0.000000000000000000, 0.000000000000000000 ) ) ;
#257 = APPROVAL_PERSON_ORGANIZATION ( #262, #30, #271 ) ;
#258 = CIRCLE ( 'NONE', #283, 7.000000000000000000 ) ;
#259 = ADVANCED_FACE ( 'NONE', ( #261 ), #146, .T. ) ;
#260 = ORIENTED_EDGE ( 'NONE', *, *, #187, .T. ) ;
#261 = FACE_OUTER_BOUND ( 'NONE', #5, .T. ) ;
#262 = PERSON_AND_ORGANIZATION ( #208, #286 ) ;
#263 = ORIENTED_EDGE ( 'NONE', *, *, #27, .T. ) ;
#264 = CARTESIAN_POINT ( 'NONE',  ( 0.000000000000000000, 0.000000000000000000, 0.000000000000000000 ) ) ;
#265 = VERTEX_POINT ( 'NONE', #86 ) ;
#266 = CARTESIAN_POINT ( 'NONE',  ( -4.250000000000000000, 0.000000000000000000, 805.0000000000000000 ) ) ;
#267 = APPROVAL_STATUS ( 'not_yet_approved' ) ;
#268 = ORIENTED_EDGE ( 'NONE', *, *, #216, .T. ) ;
#269 = CARTESIAN_POINT ( 'NONE',  ( 4.250000000000000000, 5.204748896376250699E-16, 5.199999999999982414 ) ) ;
#270 = AXIS2_PLACEMENT_3D ( 'NONE', #131, #203, #154 ) ;
#271 = APPROVAL_ROLE ( '' ) ;
#272 = DIRECTION ( 'NONE',  ( -0.000000000000000000, -0.000000000000000000, -1.000000000000000000 ) ) ;
#273 = PERSON_AND_ORGANIZATION_ROLE ( 'design_owner' ) ;
#274 = DIRECTION ( 'NONE',  ( 1.000000000000000000, 0.000000000000000000, 0.000000000000000000 ) ) ;
#275 = DIRECTION ( 'NONE',  ( 0.000000000000000000, 0.000000000000000000, 1.000000000000000000 ) ) ;
#276 = LOCAL_TIME ( 11, 57, 57.00000000000000000, #11 ) ;
#277 = DIRECTION ( 'NONE',  ( 0.000000000000000000, 0.000000000000000000, 1.000000000000000000 ) ) ;
#278 = CIRCLE ( 'NONE', #237, 7.000000000000000000 ) ;
#279 = COORDINATED_UNIVERSAL_TIME_OFFSET ( 1, 0, .AHEAD. ) ;
#280 = PRODUCT_RELATED_PRODUCT_CATEGORY ( 'detail', '', ( #140 ) ) ;
#281 = CIRCLE ( 'NONE', #142, 4.250000000000000000 ) ;
#282 = APPROVAL ( #83, 'NEURÈENÝ' ) ;
#283 = AXIS2_PLACEMENT_3D ( 'NONE', #79, #193, #238 ) ;
#284 = CARTESIAN_POINT ( 'NONE',  ( 0.000000000000000000, 0.000000000000000000, 805.0000000000000000 ) ) ;
#285 = SECURITY_CLASSIFICATION_LEVEL ( 'unclassified' ) ;
#286 = ORGANIZATION ( 'NEURÈENÝ', 'NEURÈENÝ', '' ) ;
#287 = DIRECTION ( 'NONE',  ( 0.000000000000000000, 0.000000000000000000, 1.000000000000000000 ) ) ;
#288 = ORIENTED_EDGE ( 'NONE', *, *, #297, .F. ) ;
#289 = CARTESIAN_POINT ( 'NONE',  ( -4.250000000000000000, 0.000000000000000000, 5.199999999999982414 ) ) ;
#290 = COORDINATED_UNIVERSAL_TIME_OFFSET ( 1, 0, .AHEAD. ) ;
#291 = EDGE_LOOP ( 'NONE', ( #81, #260, #78, #135 ) ) ;
#292 = FACE_OUTER_BOUND ( 'NONE', #36, .T. ) ;
#293 = EDGE_LOOP ( 'NONE', ( #13, #172, #103, #12 ) ) ;
#294 = ORIENTED_EDGE ( 'NONE', *, *, #112, .T. ) ;
#295 = CC_DESIGN_APPROVAL ( #30, ( #250 ) ) ;
#296 = CARTESIAN_POINT ( 'NONE',  ( 0.000000000000000000, 0.000000000000000000, 805.0000000000000000 ) ) ;
#297 = EDGE_CURVE ( 'NONE', #217, #195, #1, .T. ) ;
#298 = AXIS2_PLACEMENT_3D ( 'NONE', #125, #10, #80 ) ;
#299 = DATE_TIME_ROLE ( 'creation_date' ) ;
#300 = DIRECTION ( 'NONE',  ( 0.000000000000000000, 0.000000000000000000, 1.000000000000000000 ) ) ;
#301 = FACE_OUTER_BOUND ( 'NONE', #240, .T. ) ;
#302 = VECTOR ( 'NONE', #65, 1000.000000000000000 ) ;
#303 = LOCAL_TIME ( 11, 57, 57.00000000000000000, #279 ) ;
#304 = CARTESIAN_POINT ( 'NONE',  ( 0.000000000000000000, 0.000000000000000000, 805.0000000000000000 ) ) ;
#305 = MANIFOLD_SOLID_BREP ( 'Zaoblit1', #7 ) ;
#306 = DIRECTION ( 'NONE',  ( -0.000000000000000000, -0.000000000000000000, -1.000000000000000000 ) ) ;
#307 = CC_DESIGN_PERSON_AND_ORGANIZATION_ASSIGNMENT ( #40, #105, ( #250 ) ) ;
ENDSEC;
END-ISO-10303-21;
