ISO-10303-21;
HEADER;
FILE_DESCRIPTION (( 'STEP AP203' ),
    '1' );
FILE_NAME ('0a45.STEP',
    '2022-07-07T09:38:12',
    ( '' ),
    ( '' ),
    'SwSTEP 2.0',
    'SolidWorks 2019',
    '' );
FILE_SCHEMA (( 'CONFIG_CONTROL_DESIGN' ));
ENDSEC;

DATA;
#1 = DIRECTION ( 'NONE',  ( 1.000000000000000000, 0.000000000000000000, 0.000000000000000000 ) ) ;
#2 = DIRECTION ( 'NONE',  ( 1.000000000000000000, 0.000000000000000000, 0.000000000000000000 ) ) ;
#3 = AXIS2_PLACEMENT_3D ( 'NONE', #67, #113, #306 ) ;
#4 = DIRECTION ( 'NONE',  ( 1.000000000000000000, 0.000000000000000000, 0.000000000000000000 ) ) ;
#5 = DIRECTION ( 'NONE',  ( -0.000000000000000000, -0.000000000000000000, -1.000000000000000000 ) ) ;
#6 = ADVANCED_FACE ( 'NONE', ( #227 ), #232, .F. ) ;
#7 = VERTEX_POINT ( 'NONE', #92 ) ;
#8 = CC_DESIGN_APPROVAL ( #23, ( #304 ) ) ;
#9 = ADVANCED_FACE ( 'NONE', ( #93 ), #132, .T. ) ;
#10 = ORIENTED_EDGE ( 'NONE', *, *, #87, .F. ) ;
#11 = DIRECTION ( 'NONE',  ( 0.000000000000000000, 0.000000000000000000, 1.000000000000000000 ) ) ;
#12 = LOCAL_TIME ( 11, 38, 12.00000000000000000, #51 ) ;
#13 = EDGE_CURVE ( 'NONE', #7, #162, #212, .T. ) ;
#14 = APPLICATION_PROTOCOL_DEFINITION ( 'international standard', 'config_control_design', 1994, #82 ) ;
#15 = PERSON_AND_ORGANIZATION ( #175, #36 ) ;
#16 = EDGE_LOOP ( 'NONE', ( #128, #154 ) ) ;
#17 = CARTESIAN_POINT ( 'NONE',  ( 0.000000000000000000, 0.000000000000000000, 0.000000000000000000 ) ) ;
#18 = CARTESIAN_POINT ( 'NONE',  ( 0.000000000000000000, 0.000000000000000000, 507.0000000000000000 ) ) ;
#19 = APPROVAL_PERSON_ORGANIZATION ( #256, #181, #90 ) ;
#20 = FACE_OUTER_BOUND ( 'NONE', #172, .T. ) ;
#21 = VERTEX_POINT ( 'NONE', #177 ) ;
#22 = CARTESIAN_POINT ( 'NONE',  ( 8.000000000000000000, 9.797174393178825657E-16, 507.0000000000000000 ) ) ;
#23 = APPROVAL ( #33, 'NEURÈENÝ' ) ;
#24 = LOCAL_TIME ( 11, 38, 12.00000000000000000, #179 ) ;
#25 = DIRECTION ( 'NONE',  ( 0.000000000000000000, 0.000000000000000000, 1.000000000000000000 ) ) ;
#26 = APPROVAL_DATE_TIME ( #231, #181 ) ;
#27 = PLANE ( 'NONE',  #66 ) ;
#28 = CYLINDRICAL_SURFACE ( 'NONE', #291, 8.000000000000000000 ) ;
#29 = CIRCLE ( 'NONE', #106, 8.200000000000001066 ) ;
#30 = SECURITY_CLASSIFICATION ( '', '', #157 ) ;
#31 = ADVANCED_FACE ( 'NONE', ( #20 ), #303, .F. ) ;
#32 = CARTESIAN_POINT ( 'NONE',  ( -11.00000000000000000, 0.000000000000000000, 7.000000000000000000 ) ) ;
#33 = APPROVAL_STATUS ( 'not_yet_approved' ) ;
#34 = ADVANCED_FACE ( 'NONE', ( #111 ), #201, .T. ) ;
#35 = EDGE_CURVE ( 'NONE', #297, #80, #29, .T. ) ;
#36 = ORGANIZATION ( 'NEURÈENÝ', 'NEURÈENÝ', '' ) ;
#37 = ORIENTED_EDGE ( 'NONE', *, *, #142, .F. ) ;
#38 = DIRECTION ( 'NONE',  ( -0.000000000000000000, -0.000000000000000000, -1.000000000000000000 ) ) ;
#39 = CC_DESIGN_SECURITY_CLASSIFICATION ( #30, ( #295 ) ) ;
#40 = DIRECTION ( 'NONE',  ( -1.000000000000000000, 0.000000000000000000, 0.000000000000000000 ) ) ;
#41 = APPROVAL_ROLE ( '' ) ;
#42 = DESIGN_CONTEXT ( 'detailed design', #262, 'design' ) ;
#43 = ORIENTED_EDGE ( 'NONE', *, *, #261, .T. ) ;
#44 = PRODUCT ( '0a45', '0a45', '', ( #299 ) ) ;
#45 = DATE_AND_TIME ( #251, #149 ) ;
#46 = VERTEX_POINT ( 'NONE', #277 ) ;
#47 = AXIS2_PLACEMENT_3D ( 'NONE', #225, #247, #40 ) ;
#48 = DIRECTION ( 'NONE',  ( 0.000000000000000000, -1.000000000000000000, 0.000000000000000000 ) ) ;
#49 = CIRCLE ( 'NONE', #141, 8.000000000000000000 ) ;
#50 = ORIENTED_EDGE ( 'NONE', *, *, #35, .T. ) ;
#51 = COORDINATED_UNIVERSAL_TIME_OFFSET ( 1, 0, .AHEAD. ) ;
#52 = EDGE_CURVE ( 'NONE', #272, #297, #197, .T. ) ;
#53 = DIRECTION ( 'NONE',  ( -1.000000000000000000, 0.000000000000000000, 0.000000000000000000 ) ) ;
#54 = DIRECTION ( 'NONE',  ( 1.000000000000000000, 0.000000000000000000, -0.000000000000000000 ) ) ;
#55 = TOROIDAL_SURFACE ( 'NONE', #216, 8.200000000000001066, 0.2000000000000000111 ) ;
#56 = CARTESIAN_POINT ( 'NONE',  ( -8.200000000000001066, 1.004210375300829674E-15, 7.199999999999984190 ) ) ;
#57 = CARTESIAN_POINT ( 'NONE',  ( 8.000000000000000000, 9.797174393178825657E-16, 507.0000000000000000 ) ) ;
#58 = DIRECTION ( 'NONE',  ( -1.000000000000000000, 1.224646799147353207E-16, 0.000000000000000000 ) ) ;
#59 = CIRCLE ( 'NONE', #139, 11.00000000000000000 ) ;
#60 = DIRECTION ( 'NONE',  ( 0.000000000000000000, 0.000000000000000000, 1.000000000000000000 ) ) ;
#61 = EDGE_CURVE ( 'NONE', #86, #272, #98, .T. ) ;
#62 = EDGE_LOOP ( 'NONE', ( #50, #125 ) ) ;
#63 = CARTESIAN_POINT ( 'NONE',  ( 0.000000000000000000, 0.000000000000000000, 0.000000000000000000 ) ) ;
#64 = ORIENTED_EDGE ( 'NONE', *, *, #68, .F. ) ;
#65 = COORDINATED_UNIVERSAL_TIME_OFFSET ( 1, 0, .AHEAD. ) ;
#66 = AXIS2_PLACEMENT_3D ( 'NONE', #75, #236, #54 ) ;
#67 = CARTESIAN_POINT ( 'NONE',  ( 0.000000000000000000, 0.000000000000000000, 7.199999999999984190 ) ) ;
#68 = EDGE_CURVE ( 'NONE', #252, #46, #178, .T. ) ;
#69 = ORIENTED_EDGE ( 'NONE', *, *, #240, .F. ) ;
#70 = ORIENTED_EDGE ( 'NONE', *, *, #281, .T. ) ;
#71 = ORIENTED_EDGE ( 'NONE', *, *, #298, .T. ) ;
#72 = CYLINDRICAL_SURFACE ( 'NONE', #88, 11.00000000000000000 ) ;
#73 = DIRECTION ( 'NONE',  ( 1.224646799147353207E-16, 1.000000000000000000, -0.000000000000000000 ) ) ;
#74 = CARTESIAN_POINT ( 'NONE',  ( -8.200000000000001066, 1.004210375300829674E-15, 6.999999999999992006 ) ) ;
#75 = CARTESIAN_POINT ( 'NONE',  ( 0.000000000000000000, 0.000000000000000000, 7.000000000000000000 ) ) ;
#76 = CARTESIAN_POINT ( 'NONE',  ( 0.000000000000000000, 0.000000000000000000, 507.0000000000000000 ) ) ;
#77 = PRODUCT_DEFINITION_SHAPE ( 'NONE', 'NONE',  #304 ) ;
#78 = AXIS2_PLACEMENT_3D ( 'NONE', #170, #209, #122 ) ;
#79 = CC_DESIGN_PERSON_AND_ORGANIZATION_ASSIGNMENT ( #196, #249, ( #304 ) ) ;
#80 = VERTEX_POINT ( 'NONE', #74 ) ;
#81 =( LENGTH_UNIT ( ) NAMED_UNIT ( * ) SI_UNIT ( .MILLI., .METRE. ) );
#82 = APPLICATION_CONTEXT ( 'configuration controlled 3d designs of mechanical parts and assemblies' ) ;
#83 = PERSON_AND_ORGANIZATION ( #175, #36 ) ;
#84 = ORIENTED_EDGE ( 'NONE', *, *, #142, .T. ) ;
#85 = COORDINATED_UNIVERSAL_TIME_OFFSET ( 1, 0, .AHEAD. ) ;
#86 = VERTEX_POINT ( 'NONE', #95 ) ;
#87 = EDGE_CURVE ( 'NONE', #272, #86, #49, .T. ) ;
#88 = AXIS2_PLACEMENT_3D ( 'NONE', #116, #38, #173 ) ;
#89 = DIRECTION ( 'NONE',  ( 0.000000000000000000, 0.000000000000000000, 1.000000000000000000 ) ) ;
#90 = APPROVAL_ROLE ( '' ) ;
#91 = DIRECTION ( 'NONE',  ( 1.000000000000000000, 0.000000000000000000, -0.000000000000000000 ) ) ;
#92 = CARTESIAN_POINT ( 'NONE',  ( -8.000000000000000000, 0.000000000000000000, 507.0000000000000000 ) ) ;
#93 = FACE_OUTER_BOUND ( 'NONE', #267, .T. ) ;
#94 = SHAPE_DEFINITION_REPRESENTATION ( #77, #279 ) ;
#95 = CARTESIAN_POINT ( 'NONE',  ( -8.000000000000000000, 0.000000000000000000, 7.199999999999984190 ) ) ;
#96 = CARTESIAN_POINT ( 'NONE',  ( 11.00000000000000000, 1.347111479062088405E-15, 0.000000000000000000 ) ) ;
#97 = CARTESIAN_POINT ( 'NONE',  ( -8.000000000000000000, 0.000000000000000000, 507.0000000000000000 ) ) ;
#98 = CIRCLE ( 'NONE', #237, 8.000000000000000000 ) ;
#99 = FACE_BOUND ( 'NONE', #62, .T. ) ;
#100 = FACE_OUTER_BOUND ( 'NONE', #185, .T. ) ;
#101 = APPROVAL ( #269, 'NEURÈENÝ' ) ;
#102 = CIRCLE ( 'NONE', #282, 11.00000000000000000 ) ;
#103 = ORIENTED_EDGE ( 'NONE', *, *, #153, .F. ) ;
#104 = CC_DESIGN_DATE_AND_TIME_ASSIGNMENT ( #45, #133, ( #30 ) ) ;
#105 = PERSON_AND_ORGANIZATION ( #175, #36 ) ;
#106 = AXIS2_PLACEMENT_3D ( 'NONE', #180, #276, #182 ) ;
#107 = DIRECTION ( 'NONE',  ( 1.000000000000000000, 0.000000000000000000, 0.000000000000000000 ) ) ;
#108 = ORIENTED_EDGE ( 'NONE', *, *, #13, .F. ) ;
#109 = PRODUCT_RELATED_PRODUCT_CATEGORY ( 'detail', '', ( #44 ) ) ;
#110 = PERSON_AND_ORGANIZATION_ROLE ( 'classification_officer' ) ;
#111 = FACE_OUTER_BOUND ( 'NONE', #16, .T. ) ;
#112 = AXIS2_PLACEMENT_3D ( 'NONE', #159, #48, #136 ) ;
#113 = DIRECTION ( 'NONE',  ( 0.000000000000000000, 0.000000000000000000, 1.000000000000000000 ) ) ;
#114 = ORIENTED_EDGE ( 'NONE', *, *, #35, .F. ) ;
#115 = ORIENTED_EDGE ( 'NONE', *, *, #244, .F. ) ;
#116 = CARTESIAN_POINT ( 'NONE',  ( 0.000000000000000000, 0.000000000000000000, 7.000000000000000000 ) ) ;
#117 = CYLINDRICAL_SURFACE ( 'NONE', #184, 8.000000000000000000 ) ;
#118 = CC_DESIGN_PERSON_AND_ORGANIZATION_ASSIGNMENT ( #246, #151, ( #44 ) ) ;
#119 = DIRECTION ( 'NONE',  ( -0.000000000000000000, -0.000000000000000000, -1.000000000000000000 ) ) ;
#120 = CARTESIAN_POINT ( 'NONE',  ( 0.000000000000000000, 0.000000000000000000, 7.000000000000000000 ) ) ;
#121 = AXIS2_PLACEMENT_3D ( 'NONE', #131, #205, #283 ) ;
#122 = DIRECTION ( 'NONE',  ( 1.000000000000000000, 0.000000000000000000, 0.000000000000000000 ) ) ;
#123 = APPROVAL_ROLE ( '' ) ;
#124 = EDGE_LOOP ( 'NONE', ( #37, #10, #302, #103 ) ) ;
#125 = ORIENTED_EDGE ( 'NONE', *, *, #153, .T. ) ;
#126 = AXIS2_PLACEMENT_3D ( 'NONE', #286, #119, #143 ) ;
#127 = EDGE_CURVE ( 'NONE', #162, #7, #273, .T. ) ;
#128 = ORIENTED_EDGE ( 'NONE', *, *, #13, .T. ) ;
#129 = PERSON_AND_ORGANIZATION ( #175, #36 ) ;
#130 = ADVANCED_FACE ( 'NONE', ( #145 ), #55, .F. ) ;
#131 = CARTESIAN_POINT ( 'NONE',  ( 0.000000000000000000, 0.000000000000000000, 0.000000000000000000 ) ) ;
#132 = CYLINDRICAL_SURFACE ( 'NONE', #47, 11.00000000000000000 ) ;
#133 = DATE_TIME_ROLE ( 'classification_date' ) ;
#134 = EDGE_LOOP ( 'NONE', ( #70, #156 ) ) ;
#135 = CC_DESIGN_APPROVAL ( #101, ( #295 ) ) ;
#136 = DIRECTION ( 'NONE',  ( 0.000000000000000000, 0.000000000000000000, -1.000000000000000000 ) ) ;
#137 = ORIENTED_EDGE ( 'NONE', *, *, #61, .F. ) ;
#138 = DIRECTION ( 'NONE',  ( 1.000000000000000000, 0.000000000000000000, 0.000000000000000000 ) ) ;
#139 = AXIS2_PLACEMENT_3D ( 'NONE', #17, #11, #301 ) ;
#140 = LINE ( 'NONE', #22, #248 ) ;
#141 = AXIS2_PLACEMENT_3D ( 'NONE', #186, #166, #4 ) ;
#142 = EDGE_CURVE ( 'NONE', #86, #80, #268, .T. ) ;
#143 = DIRECTION ( 'NONE',  ( 1.000000000000000000, 0.000000000000000000, 0.000000000000000000 ) ) ;
#144 = LINE ( 'NONE', #32, #203 ) ;
#145 = FACE_OUTER_BOUND ( 'NONE', #124, .T. ) ;
#146 = APPROVAL_PERSON_ORGANIZATION ( #83, #101, #41 ) ;
#147 = VERTEX_POINT ( 'NONE', #96 ) ;
#148 = EDGE_CURVE ( 'NONE', #46, #21, #144, .T. ) ;
#149 = LOCAL_TIME ( 11, 38, 12.00000000000000000, #65 ) ;
#150 = ORIENTED_EDGE ( 'NONE', *, *, #148, .T. ) ;
#151 = PERSON_AND_ORGANIZATION_ROLE ( 'design_owner' ) ;
#152 = ORIENTED_EDGE ( 'NONE', *, *, #127, .F. ) ;
#153 = EDGE_CURVE ( 'NONE', #80, #297, #287, .T. ) ;
#154 = ORIENTED_EDGE ( 'NONE', *, *, #127, .T. ) ;
#155 = CALENDAR_DATE ( 2022, 7, 7 ) ;
#156 = ORIENTED_EDGE ( 'NONE', *, *, #68, .T. ) ;
#157 = SECURITY_CLASSIFICATION_LEVEL ( 'unclassified' ) ;
#158 = DIRECTION ( 'NONE',  ( 1.000000000000000000, 0.000000000000000000, 0.000000000000000000 ) ) ;
#159 = CARTESIAN_POINT ( 'NONE',  ( 8.200000000000001066, 0.000000000000000000, 7.199999999999984190 ) ) ;
#160 = CC_DESIGN_PERSON_AND_ORGANIZATION_ASSIGNMENT ( #174, #110, ( #30 ) ) ;
#161 = AXIS2_PLACEMENT_3D ( 'NONE', #63, #60, #107 ) ;
#162 = VERTEX_POINT ( 'NONE', #57 ) ;
#163 = CARTESIAN_POINT ( 'NONE',  ( 11.00000000000000000, 1.347111479062088405E-15, 7.000000000000000000 ) ) ;
#164 = CALENDAR_DATE ( 2022, 7, 7 ) ;
#165 = CC_DESIGN_PERSON_AND_ORGANIZATION_ASSIGNMENT ( #15, #296, ( #295 ) ) ;
#166 = DIRECTION ( 'NONE',  ( 0.000000000000000000, 0.000000000000000000, 1.000000000000000000 ) ) ;
#167 =( GEOMETRIC_REPRESENTATION_CONTEXT ( 3 ) GLOBAL_UNCERTAINTY_ASSIGNED_CONTEXT ( ( #271 ) ) GLOBAL_UNIT_ASSIGNED_CONTEXT ( ( #81, #266, #222 ) ) REPRESENTATION_CONTEXT ( 'NONE', 'WORKASPACE' ) );
#168 = DIRECTION ( 'NONE',  ( 0.000000000000000000, 0.000000000000000000, 1.000000000000000000 ) ) ;
#169 = CARTESIAN_POINT ( 'NONE',  ( 11.00000000000000000, 1.347111479062088405E-15, 7.000000000000000000 ) ) ;
#170 = CARTESIAN_POINT ( 'NONE',  ( 0.000000000000000000, 0.000000000000000000, 7.000000000000000000 ) ) ;
#171 = VECTOR ( 'NONE', #193, 1000.000000000000000 ) ;
#172 = EDGE_LOOP ( 'NONE', ( #115, #280 ) ) ;
#173 = DIRECTION ( 'NONE',  ( -1.000000000000000000, 0.000000000000000000, 0.000000000000000000 ) ) ;
#174 = PERSON_AND_ORGANIZATION ( #175, #36 ) ;
#175 = PERSON ( 'NEURÈENÝ', 'NEURÈENÝ', 'NEURÈENÝ', ('NEURÈENÝ'), ('NEURÈENÝ'), ('NEURÈENÝ') ) ;
#176 = DATE_TIME_ROLE ( 'creation_date' ) ;
#177 = CARTESIAN_POINT ( 'NONE',  ( -11.00000000000000000, 0.000000000000000000, 0.000000000000000000 ) ) ;
#178 = CIRCLE ( 'NONE', #78, 11.00000000000000000 ) ;
#179 = COORDINATED_UNIVERSAL_TIME_OFFSET ( 1, 0, .AHEAD. ) ;
#180 = CARTESIAN_POINT ( 'NONE',  ( 0.000000000000000000, 0.000000000000000000, 7.000000000000000000 ) ) ;
#181 = APPROVAL ( #278, 'NEURÈENÝ' ) ;
#182 = DIRECTION ( 'NONE',  ( 1.000000000000000000, 0.000000000000000000, 0.000000000000000000 ) ) ;
#183 = DIRECTION ( 'NONE',  ( 0.000000000000000000, 0.000000000000000000, 1.000000000000000000 ) ) ;
#184 = AXIS2_PLACEMENT_3D ( 'NONE', #234, #5, #53 ) ;
#185 = EDGE_LOOP ( 'NONE', ( #152, #204, #206, #255 ) ) ;
#186 = CARTESIAN_POINT ( 'NONE',  ( 0.000000000000000000, 0.000000000000000000, 7.199999999999984190 ) ) ;
#187 = DIRECTION ( 'NONE',  ( -0.000000000000000000, -0.000000000000000000, -1.000000000000000000 ) ) ;
#188 = MANIFOLD_SOLID_BREP ( 'Zaoblit1', #265 ) ;
#189 = CC_DESIGN_APPROVAL ( #181, ( #30 ) ) ;
#190 = LINE ( 'NONE', #97, #233 ) ;
#191 = DIRECTION ( 'NONE',  ( -0.000000000000000000, -0.000000000000000000, -1.000000000000000000 ) ) ;
#192 = CC_DESIGN_DATE_AND_TIME_ASSIGNMENT ( #293, #176, ( #304 ) ) ;
#193 = DIRECTION ( 'NONE',  ( -0.000000000000000000, -0.000000000000000000, -1.000000000000000000 ) ) ;
#194 = AXIS2_PLACEMENT_3D ( 'NONE', #263, #284, #1 ) ;
#195 = ADVANCED_FACE ( 'NONE', ( #99, #235 ), #27, .T. ) ;
#196 = PERSON_AND_ORGANIZATION ( #175, #36 ) ;
#197 = CIRCLE ( 'NONE', #112, 0.1999999999999996503 ) ;
#198 = PERSON_AND_ORGANIZATION_ROLE ( 'design_supplier' ) ;
#199 = ORIENTED_EDGE ( 'NONE', *, *, #148, .F. ) ;
#200 = APPROVAL_DATE_TIME ( #218, #23 ) ;
#201 = PLANE ( 'NONE',  #294 ) ;
#202 = CARTESIAN_POINT ( 'NONE',  ( 0.000000000000000000, 0.000000000000000000, 507.0000000000000000 ) ) ;
#203 = VECTOR ( 'NONE', #187, 1000.000000000000000 ) ;
#204 = ORIENTED_EDGE ( 'NONE', *, *, #207, .T. ) ;
#205 = DIRECTION ( 'NONE',  ( 0.000000000000000000, 0.000000000000000000, 1.000000000000000000 ) ) ;
#206 = ORIENTED_EDGE ( 'NONE', *, *, #87, .T. ) ;
#207 = EDGE_CURVE ( 'NONE', #162, #272, #140, .T. ) ;
#208 = AXIS2_PLACEMENT_3D ( 'NONE', #56, #73, #58 ) ;
#209 = DIRECTION ( 'NONE',  ( 0.000000000000000000, 0.000000000000000000, 1.000000000000000000 ) ) ;
#210 = DIRECTION ( 'NONE',  ( -1.000000000000000000, 0.000000000000000000, 0.000000000000000000 ) ) ;
#211 = LINE ( 'NONE', #169, #171 ) ;
#212 = CIRCLE ( 'NONE', #254, 8.000000000000000000 ) ;
#213 = AXIS2_PLACEMENT_3D ( 'NONE', #215, #25, #2 ) ;
#214 = DIRECTION ( 'NONE',  ( 0.000000000000000000, 0.000000000000000000, 1.000000000000000000 ) ) ;
#215 = CARTESIAN_POINT ( 'NONE',  ( 0.000000000000000000, 0.000000000000000000, 0.000000000000000000 ) ) ;
#216 = AXIS2_PLACEMENT_3D ( 'NONE', #260, #168, #258 ) ;
#217 = EDGE_LOOP ( 'NONE', ( #243, #108, #43, #229 ) ) ;
#218 = DATE_AND_TIME ( #155, #24 ) ;
#219 = DATE_AND_TIME ( #224, #221 ) ;
#220 = ADVANCED_FACE ( 'NONE', ( #238 ), #117, .T. ) ;
#221 = LOCAL_TIME ( 11, 38, 12.00000000000000000, #245 ) ;
#222 =( NAMED_UNIT ( * ) SI_UNIT ( $, .STERADIAN. ) SOLID_ANGLE_UNIT ( ) );
#223 = DIRECTION ( 'NONE',  ( 0.000000000000000000, 0.000000000000000000, 1.000000000000000000 ) ) ;
#224 = CALENDAR_DATE ( 2022, 7, 7 ) ;
#225 = CARTESIAN_POINT ( 'NONE',  ( 0.000000000000000000, 0.000000000000000000, 7.000000000000000000 ) ) ;
#226 = CC_DESIGN_PERSON_AND_ORGANIZATION_ASSIGNMENT ( #105, #198, ( #295 ) ) ;
#227 = FACE_OUTER_BOUND ( 'NONE', #292, .T. ) ;
#228 = ORIENTED_EDGE ( 'NONE', *, *, #52, .F. ) ;
#229 = ORIENTED_EDGE ( 'NONE', *, *, #61, .T. ) ;
#230 = DIRECTION ( 'NONE',  ( -0.000000000000000000, -0.000000000000000000, -1.000000000000000000 ) ) ;
#231 = DATE_AND_TIME ( #164, #12 ) ;
#232 = TOROIDAL_SURFACE ( 'NONE', #3, 8.200000000000001066, 0.2000000000000000111 ) ;
#233 = VECTOR ( 'NONE', #191, 1000.000000000000000 ) ;
#234 = CARTESIAN_POINT ( 'NONE',  ( 0.000000000000000000, 0.000000000000000000, 507.0000000000000000 ) ) ;
#235 = FACE_OUTER_BOUND ( 'NONE', #134, .T. ) ;
#236 = DIRECTION ( 'NONE',  ( 0.000000000000000000, 0.000000000000000000, 1.000000000000000000 ) ) ;
#237 = AXIS2_PLACEMENT_3D ( 'NONE', #305, #183, #307 ) ;
#238 = FACE_OUTER_BOUND ( 'NONE', #217, .T. ) ;
#239 = APPLICATION_PROTOCOL_DEFINITION ( 'international standard', 'config_control_design', 1994, #262 ) ;
#240 = EDGE_CURVE ( 'NONE', #252, #147, #211, .T. ) ;
#241 = ORIENTED_EDGE ( 'NONE', *, *, #240, .T. ) ;
#242 = LOCAL_TIME ( 11, 38, 12.00000000000000000, #85 ) ;
#243 = ORIENTED_EDGE ( 'NONE', *, *, #207, .F. ) ;
#244 = EDGE_CURVE ( 'NONE', #21, #147, #274, .T. ) ;
#245 = COORDINATED_UNIVERSAL_TIME_OFFSET ( 1, 0, .AHEAD. ) ;
#246 = PERSON_AND_ORGANIZATION ( #175, #36 ) ;
#247 = DIRECTION ( 'NONE',  ( -0.000000000000000000, -0.000000000000000000, -1.000000000000000000 ) ) ;
#248 = VECTOR ( 'NONE', #264, 1000.000000000000000 ) ;
#249 = PERSON_AND_ORGANIZATION_ROLE ( 'creator' ) ;
#250 = ORIENTED_EDGE ( 'NONE', *, *, #281, .F. ) ;
#251 = CALENDAR_DATE ( 2022, 7, 7 ) ;
#252 = VERTEX_POINT ( 'NONE', #163 ) ;
#253 = ORIENTED_EDGE ( 'NONE', *, *, #244, .T. ) ;
#254 = AXIS2_PLACEMENT_3D ( 'NONE', #18, #89, #158 ) ;
#255 = ORIENTED_EDGE ( 'NONE', *, *, #261, .F. ) ;
#256 = PERSON_AND_ORGANIZATION ( #175, #36 ) ;
#257 = ADVANCED_FACE ( 'NONE', ( #100 ), #28, .T. ) ;
#258 = DIRECTION ( 'NONE',  ( 1.000000000000000000, 0.000000000000000000, 0.000000000000000000 ) ) ;
#259 = APPROVAL_PERSON_ORGANIZATION ( #129, #23, #123 ) ;
#260 = CARTESIAN_POINT ( 'NONE',  ( 0.000000000000000000, 0.000000000000000000, 7.199999999999984190 ) ) ;
#261 = EDGE_CURVE ( 'NONE', #7, #86, #190, .T. ) ;
#262 = APPLICATION_CONTEXT ( 'configuration controlled 3d designs of mechanical parts and assemblies' ) ;
#263 = CARTESIAN_POINT ( 'NONE',  ( 0.000000000000000000, 0.000000000000000000, 507.0000000000000000 ) ) ;
#264 = DIRECTION ( 'NONE',  ( -0.000000000000000000, -0.000000000000000000, -1.000000000000000000 ) ) ;
#265 = CLOSED_SHELL ( 'NONE', ( #6, #257, #9, #285, #195, #31, #220, #34, #130 ) ) ;
#266 =( NAMED_UNIT ( * ) PLANE_ANGLE_UNIT ( ) SI_UNIT ( $, .RADIAN. ) );
#267 = EDGE_LOOP ( 'NONE', ( #64, #241, #71, #199 ) ) ;
#268 = CIRCLE ( 'NONE', #208, 0.2000000000000005107 ) ;
#269 = APPROVAL_STATUS ( 'not_yet_approved' ) ;
#270 = CALENDAR_DATE ( 2022, 7, 7 ) ;
#271 = UNCERTAINTY_MEASURE_WITH_UNIT (LENGTH_MEASURE( 1.000000000000000082E-05 ), #81, 'distance_accuracy_value', 'NONE');
#272 = VERTEX_POINT ( 'NONE', #288 ) ;
#273 = CIRCLE ( 'NONE', #194, 8.000000000000000000 ) ;
#274 = CIRCLE ( 'NONE', #213, 11.00000000000000000 ) ;
#275 = APPROVAL_DATE_TIME ( #219, #101 ) ;
#276 = DIRECTION ( 'NONE',  ( -0.000000000000000000, -0.000000000000000000, -1.000000000000000000 ) ) ;
#277 = CARTESIAN_POINT ( 'NONE',  ( -11.00000000000000000, 0.000000000000000000, 7.000000000000000000 ) ) ;
#278 = APPROVAL_STATUS ( 'not_yet_approved' ) ;
#279 = ADVANCED_BREP_SHAPE_REPRESENTATION ( '0a45', ( #188, #161 ), #167 ) ;
#280 = ORIENTED_EDGE ( 'NONE', *, *, #298, .F. ) ;
#281 = EDGE_CURVE ( 'NONE', #46, #252, #102, .T. ) ;
#282 = AXIS2_PLACEMENT_3D ( 'NONE', #120, #214, #138 ) ;
#283 = DIRECTION ( 'NONE',  ( 1.000000000000000000, 0.000000000000000000, -0.000000000000000000 ) ) ;
#284 = DIRECTION ( 'NONE',  ( 0.000000000000000000, 0.000000000000000000, 1.000000000000000000 ) ) ;
#285 = ADVANCED_FACE ( 'NONE', ( #289 ), #72, .T. ) ;
#286 = CARTESIAN_POINT ( 'NONE',  ( 0.000000000000000000, 0.000000000000000000, 7.000000000000000000 ) ) ;
#287 = CIRCLE ( 'NONE', #126, 8.200000000000001066 ) ;
#288 = CARTESIAN_POINT ( 'NONE',  ( 8.000000000000000000, 9.797174393178825657E-16, 7.199999999999984190 ) ) ;
#289 = FACE_OUTER_BOUND ( 'NONE', #300, .T. ) ;
#290 = CARTESIAN_POINT ( 'NONE',  ( 8.200000000000001066, 0.000000000000000000, 6.999999999999992006 ) ) ;
#291 = AXIS2_PLACEMENT_3D ( 'NONE', #76, #230, #210 ) ;
#292 = EDGE_LOOP ( 'NONE', ( #137, #84, #114, #228 ) ) ;
#293 = DATE_AND_TIME ( #270, #242 ) ;
#294 = AXIS2_PLACEMENT_3D ( 'NONE', #202, #223, #91 ) ;
#295 = PRODUCT_DEFINITION_FORMATION_WITH_SPECIFIED_SOURCE ( 'LIBOVOLNÝ', '', #44, .NOT_KNOWN. ) ;
#296 = PERSON_AND_ORGANIZATION_ROLE ( 'creator' ) ;
#297 = VERTEX_POINT ( 'NONE', #290 ) ;
#298 = EDGE_CURVE ( 'NONE', #147, #21, #59, .T. ) ;
#299 = MECHANICAL_CONTEXT ( 'NONE', #82, 'mechanical' ) ;
#300 = EDGE_LOOP ( 'NONE', ( #69, #250, #150, #253 ) ) ;
#301 = DIRECTION ( 'NONE',  ( 1.000000000000000000, 0.000000000000000000, 0.000000000000000000 ) ) ;
#302 = ORIENTED_EDGE ( 'NONE', *, *, #52, .T. ) ;
#303 = PLANE ( 'NONE',  #121 ) ;
#304 = PRODUCT_DEFINITION ( 'NEZNÁMÝ', '', #295, #42 ) ;
#305 = CARTESIAN_POINT ( 'NONE',  ( 0.000000000000000000, 0.000000000000000000, 7.199999999999984190 ) ) ;
#306 = DIRECTION ( 'NONE',  ( 1.000000000000000000, 0.000000000000000000, 0.000000000000000000 ) ) ;
#307 = DIRECTION ( 'NONE',  ( 1.000000000000000000, 0.000000000000000000, 0.000000000000000000 ) ) ;
ENDSEC;
END-ISO-10303-21;
