ISO-10303-21;
HEADER;
FILE_DESCRIPTION (( 'STEP AP203' ),
    '1' );
FILE_NAME ('4e49.STEP',
    '2022-07-07T09:49:29',
    ( '' ),
    ( '' ),
    'SwSTEP 2.0',
    'SolidWorks 2019',
    '' );
FILE_SCHEMA (( 'CONFIG_CONTROL_DESIGN' ));
ENDSEC;

DATA;
#1 = CARTESIAN_POINT ( 'NONE',  ( -8.000000000000000000, 0.000000000000000000, 0.000000000000000000 ) ) ;
#2 = ORIENTED_EDGE ( 'NONE', *, *, #181, .T. ) ;
#3 = PERSON_AND_ORGANIZATION_ROLE ( 'design_supplier' ) ;
#4 = EDGE_CURVE ( 'NONE', #140, #306, #208, .T. ) ;
#5 = EDGE_LOOP ( 'NONE', ( #269, #82, #2, #204 ) ) ;
#6 = PERSON_AND_ORGANIZATION ( #89, #139 ) ;
#7 = ORIENTED_EDGE ( 'NONE', *, *, #120, .T. ) ;
#8 = APPROVAL_STATUS ( 'not_yet_approved' ) ;
#9 = CIRCLE ( 'NONE', #303, 8.000000000000000000 ) ;
#10 = APPLICATION_PROTOCOL_DEFINITION ( 'international standard', 'config_control_design', 1994, #127 ) ;
#11 = DIRECTION ( 'NONE',  ( 1.000000000000000000, 0.000000000000000000, 0.000000000000000000 ) ) ;
#12 = DIRECTION ( 'NONE',  ( 0.000000000000000000, 0.000000000000000000, 1.000000000000000000 ) ) ;
#13 = APPROVAL ( #182, 'NEURÈENÝ' ) ;
#14 = PRODUCT_DEFINITION_SHAPE ( 'NONE', 'NONE',  #259 ) ;
#15 = CARTESIAN_POINT ( 'NONE',  ( 5.500000000000000000, 6.735557395310442023E-16, 5.199999999999996625 ) ) ;
#16 = ORIENTED_EDGE ( 'NONE', *, *, #24, .F. ) ;
#17 = AXIS2_PLACEMENT_3D ( 'NONE', #216, #258, #160 ) ;
#18 = PRODUCT_DEFINITION_FORMATION_WITH_SPECIFIED_SOURCE ( 'LIBOVOLNÝ', '', #118, .NOT_KNOWN. ) ;
#19 = EDGE_CURVE ( 'NONE', #76, #199, #285, .T. ) ;
#20 = DIRECTION ( 'NONE',  ( 1.000000000000000000, 0.000000000000000000, 0.000000000000000000 ) ) ;
#21 = DIRECTION ( 'NONE',  ( 1.000000000000000000, 0.000000000000000000, 0.000000000000000000 ) ) ;
#22 = CARTESIAN_POINT ( 'NONE',  ( 0.000000000000000000, 0.000000000000000000, 5.199999999999996625 ) ) ;
#23 = DIRECTION ( 'NONE',  ( -1.000000000000000000, 0.000000000000000000, 0.000000000000000000 ) ) ;
#24 = EDGE_CURVE ( 'NONE', #199, #76, #271, .T. ) ;
#25 = ORIENTED_EDGE ( 'NONE', *, *, #19, .T. ) ;
#26 = CYLINDRICAL_SURFACE ( 'NONE', #286, 8.000000000000000000 ) ;
#27 = ADVANCED_BREP_SHAPE_REPRESENTATION ( '4e49', ( #228, #262 ), #130 ) ;
#28 = CARTESIAN_POINT ( 'NONE',  ( 0.000000000000000000, 0.000000000000000000, 5.000000000000000000 ) ) ;
#29 = EDGE_LOOP ( 'NONE', ( #229, #180, #264, #301 ) ) ;
#30 = AXIS2_PLACEMENT_3D ( 'NONE', #92, #114, #297 ) ;
#31 = CIRCLE ( 'NONE', #109, 5.500000000000000000 ) ;
#32 = CC_DESIGN_PERSON_AND_ORGANIZATION_ASSIGNMENT ( #6, #293, ( #144 ) ) ;
#33 = LOCAL_TIME ( 11, 49, 29.00000000000000000, #210 ) ;
#34 = ORIENTED_EDGE ( 'NONE', *, *, #152, .F. ) ;
#35 = DATE_AND_TIME ( #158, #163 ) ;
#36 = CARTESIAN_POINT ( 'NONE',  ( 5.500000000000000000, 6.735557395310442023E-16, 130.0000000000000000 ) ) ;
#37 = CIRCLE ( 'NONE', #17, 5.500000000000000000 ) ;
#38 = DIRECTION ( 'NONE',  ( 1.000000000000000000, 0.000000000000000000, 0.000000000000000000 ) ) ;
#39 = LOCAL_TIME ( 11, 49, 29.00000000000000000, #202 ) ;
#40 = PRODUCT_RELATED_PRODUCT_CATEGORY ( 'detail', '', ( #118 ) ) ;
#41 = AXIS2_PLACEMENT_3D ( 'NONE', #43, #237, #20 ) ;
#42 = ADVANCED_FACE ( 'NONE', ( #59, #190 ), #220, .T. ) ;
#43 = CARTESIAN_POINT ( 'NONE',  ( 0.000000000000000000, 0.000000000000000000, 5.000000000000000000 ) ) ;
#44 = DIRECTION ( 'NONE',  ( 1.000000000000000000, 0.000000000000000000, -0.000000000000000000 ) ) ;
#45 = ORIENTED_EDGE ( 'NONE', *, *, #263, .T. ) ;
#46 = FACE_OUTER_BOUND ( 'NONE', #104, .T. ) ;
#47 = AXIS2_PLACEMENT_3D ( 'NONE', #251, #295, #236 ) ;
#48 = AXIS2_PLACEMENT_3D ( 'NONE', #256, #261, #195 ) ;
#49 = DIRECTION ( 'NONE',  ( 1.000000000000000000, 0.000000000000000000, 0.000000000000000000 ) ) ;
#50 = DIRECTION ( 'NONE',  ( 0.000000000000000000, 0.000000000000000000, 1.000000000000000000 ) ) ;
#51 = FACE_OUTER_BOUND ( 'NONE', #5, .T. ) ;
#52 = LOCAL_TIME ( 11, 49, 29.00000000000000000, #133 ) ;
#53 = VERTEX_POINT ( 'NONE', #15 ) ;
#54 =( LENGTH_UNIT ( ) NAMED_UNIT ( * ) SI_UNIT ( .MILLI., .METRE. ) );
#55 = AXIS2_PLACEMENT_3D ( 'NONE', #224, #304, #23 ) ;
#56 = COORDINATED_UNIVERSAL_TIME_OFFSET ( 1, 0, .AHEAD. ) ;
#57 = EDGE_LOOP ( 'NONE', ( #25, #291 ) ) ;
#58 = APPROVAL_DATE_TIME ( #83, #168 ) ;
#59 = FACE_BOUND ( 'NONE', #142, .T. ) ;
#60 = APPROVAL_ROLE ( '' ) ;
#61 = CC_DESIGN_DATE_AND_TIME_ASSIGNMENT ( #205, #288, ( #144 ) ) ;
#62 = VECTOR ( 'NONE', #87, 1000.000000000000000 ) ;
#63 = PERSON_AND_ORGANIZATION ( #89, #139 ) ;
#64 = ADVANCED_FACE ( 'NONE', ( #115 ), #156, .F. ) ;
#65 = DIRECTION ( 'NONE',  ( 0.000000000000000000, 0.000000000000000000, 1.000000000000000000 ) ) ;
#66 = AXIS2_PLACEMENT_3D ( 'NONE', #93, #143, #241 ) ;
#67 = CARTESIAN_POINT ( 'NONE',  ( 8.000000000000000000, 9.797174393178825657E-16, 5.000000000000000000 ) ) ;
#68 = CARTESIAN_POINT ( 'NONE',  ( -5.500000000000000000, 0.000000000000000000, 130.0000000000000000 ) ) ;
#69 = DIRECTION ( 'NONE',  ( 1.000000000000000000, 0.000000000000000000, 0.000000000000000000 ) ) ;
#70 = LINE ( 'NONE', #151, #225 ) ;
#71 = VECTOR ( 'NONE', #167, 1000.000000000000000 ) ;
#72 = CIRCLE ( 'NONE', #135, 8.000000000000000000 ) ;
#73 = DIRECTION ( 'NONE',  ( 1.224646799147353207E-16, 1.000000000000000000, -0.000000000000000000 ) ) ;
#74 = EDGE_CURVE ( 'NONE', #232, #132, #292, .T. ) ;
#75 = DIRECTION ( 'NONE',  ( -0.000000000000000000, -0.000000000000000000, -1.000000000000000000 ) ) ;
#76 = VERTEX_POINT ( 'NONE', #68 ) ;
#77 = DIRECTION ( 'NONE',  ( 1.000000000000000000, 0.000000000000000000, 0.000000000000000000 ) ) ;
#78 = AXIS2_PLACEMENT_3D ( 'NONE', #116, #277, #217 ) ;
#79 = ORIENTED_EDGE ( 'NONE', *, *, #19, .F. ) ;
#80 = DIRECTION ( 'NONE',  ( 0.000000000000000000, 0.000000000000000000, 1.000000000000000000 ) ) ;
#81 = EDGE_CURVE ( 'NONE', #53, #171, #37, .T. ) ;
#82 = ORIENTED_EDGE ( 'NONE', *, *, #81, .F. ) ;
#83 = DATE_AND_TIME ( #183, #33 ) ;
#84 = ORIENTED_EDGE ( 'NONE', *, *, #203, .F. ) ;
#85 = APPROVAL_STATUS ( 'not_yet_approved' ) ;
#86 = APPROVAL_ROLE ( '' ) ;
#87 = DIRECTION ( 'NONE',  ( -0.000000000000000000, -0.000000000000000000, -1.000000000000000000 ) ) ;
#88 = APPROVAL_DATE_TIME ( #230, #102 ) ;
#89 = PERSON ( 'NEURÈENÝ', 'NEURÈENÝ', 'NEURÈENÝ', ('NEURÈENÝ'), ('NEURÈENÝ'), ('NEURÈENÝ') ) ;
#90 = AXIS2_PLACEMENT_3D ( 'NONE', #227, #73, #282 ) ;
#91 = ORIENTED_EDGE ( 'NONE', *, *, #279, .T. ) ;
#92 = CARTESIAN_POINT ( 'NONE',  ( 0.000000000000000000, 0.000000000000000000, 130.0000000000000000 ) ) ;
#93 = CARTESIAN_POINT ( 'NONE',  ( 0.000000000000000000, 0.000000000000000000, 5.000000000000000000 ) ) ;
#94 = AXIS2_PLACEMENT_3D ( 'NONE', #147, #283, #49 ) ;
#95 = CC_DESIGN_PERSON_AND_ORGANIZATION_ASSIGNMENT ( #296, #249, ( #118 ) ) ;
#96 = ORIENTED_EDGE ( 'NONE', *, *, #120, .F. ) ;
#97 = DIRECTION ( 'NONE',  ( -0.000000000000000000, -0.000000000000000000, -1.000000000000000000 ) ) ;
#98 = CARTESIAN_POINT ( 'NONE',  ( 0.000000000000000000, 0.000000000000000000, 0.000000000000000000 ) ) ;
#99 = CARTESIAN_POINT ( 'NONE',  ( 0.000000000000000000, 0.000000000000000000, 0.000000000000000000 ) ) ;
#100 =( NAMED_UNIT ( * ) PLANE_ANGLE_UNIT ( ) SI_UNIT ( $, .RADIAN. ) );
#101 = EDGE_LOOP ( 'NONE', ( #96, #79, #45, #178 ) ) ;
#102 = APPROVAL ( #8, 'NEURÈENÝ' ) ;
#103 = CARTESIAN_POINT ( 'NONE',  ( 5.500000000000000000, 6.735557395310442023E-16, 130.0000000000000000 ) ) ;
#104 = EDGE_LOOP ( 'NONE', ( #34, #106, #153, #245 ) ) ;
#105 = SECURITY_CLASSIFICATION_LEVEL ( 'unclassified' ) ;
#106 = ORIENTED_EDGE ( 'NONE', *, *, #307, .F. ) ;
#107 = MECHANICAL_CONTEXT ( 'NONE', #166, 'mechanical' ) ;
#108 = ADVANCED_FACE ( 'NONE', ( #46 ), #119, .T. ) ;
#109 = AXIS2_PLACEMENT_3D ( 'NONE', #22, #246, #278 ) ;
#110 = AXIS2_PLACEMENT_3D ( 'NONE', #244, #125, #123 ) ;
#111 = PERSON_AND_ORGANIZATION ( #89, #139 ) ;
#112 = APPROVAL_DATE_TIME ( #266, #13 ) ;
#113 = AXIS2_PLACEMENT_3D ( 'NONE', #300, #192, #170 ) ;
#114 = DIRECTION ( 'NONE',  ( 0.000000000000000000, 0.000000000000000000, 1.000000000000000000 ) ) ;
#115 = FACE_OUTER_BOUND ( 'NONE', #284, .T. ) ;
#116 = CARTESIAN_POINT ( 'NONE',  ( 0.000000000000000000, 0.000000000000000000, 5.000000000000000000 ) ) ;
#117 = CIRCLE ( 'NONE', #90, 0.1999999999999996503 ) ;
#118 = PRODUCT ( '4e49', '4e49', '', ( #107 ) ) ;
#119 = CYLINDRICAL_SURFACE ( 'NONE', #66, 8.000000000000000000 ) ;
#120 = EDGE_CURVE ( 'NONE', #199, #53, #214, .T. ) ;
#121 = CARTESIAN_POINT ( 'NONE',  ( 5.699999999999999289, 0.000000000000000000, 4.999999999999998224 ) ) ;
#122 = CC_DESIGN_SECURITY_CLASSIFICATION ( #144, ( #18 ) ) ;
#123 = DIRECTION ( 'NONE',  ( -1.000000000000000000, 0.000000000000000000, 0.000000000000000000 ) ) ;
#124 = ORIENTED_EDGE ( 'NONE', *, *, #74, .F. ) ;
#125 = DIRECTION ( 'NONE',  ( -0.000000000000000000, -0.000000000000000000, -1.000000000000000000 ) ) ;
#126 = ORIENTED_EDGE ( 'NONE', *, *, #189, .F. ) ;
#127 = APPLICATION_CONTEXT ( 'configuration controlled 3d designs of mechanical parts and assemblies' ) ;
#128 = PERSON_AND_ORGANIZATION ( #89, #139 ) ;
#129 = ORIENTED_EDGE ( 'NONE', *, *, #81, .T. ) ;
#130 =( GEOMETRIC_REPRESENTATION_CONTEXT ( 3 ) GLOBAL_UNCERTAINTY_ASSIGNED_CONTEXT ( ( #164 ) ) GLOBAL_UNIT_ASSIGNED_CONTEXT ( ( #54, #100, #154 ) ) REPRESENTATION_CONTEXT ( 'NONE', 'WORKASPACE' ) );
#131 = PERSON_AND_ORGANIZATION ( #89, #139 ) ;
#132 = VERTEX_POINT ( 'NONE', #298 ) ;
#133 = COORDINATED_UNIVERSAL_TIME_OFFSET ( 1, 0, .AHEAD. ) ;
#134 = FACE_OUTER_BOUND ( 'NONE', #57, .T. ) ;
#135 = AXIS2_PLACEMENT_3D ( 'NONE', #98, #265, #21 ) ;
#136 = APPLICATION_PROTOCOL_DEFINITION ( 'international standard', 'config_control_design', 1994, #166 ) ;
#137 = ADVANCED_FACE ( 'NONE', ( #134 ), #274, .T. ) ;
#138 = AXIS2_PLACEMENT_3D ( 'NONE', #239, #254, #44 ) ;
#139 = ORGANIZATION ( 'NEURÈENÝ', 'NEURÈENÝ', '' ) ;
#140 = VERTEX_POINT ( 'NONE', #67 ) ;
#141 = FACE_OUTER_BOUND ( 'NONE', #155, .T. ) ;
#142 = EDGE_LOOP ( 'NONE', ( #255, #209 ) ) ;
#143 = DIRECTION ( 'NONE',  ( -0.000000000000000000, -0.000000000000000000, -1.000000000000000000 ) ) ;
#144 = SECURITY_CLASSIFICATION ( '', '', #105 ) ;
#145 = FACE_OUTER_BOUND ( 'NONE', #29, .T. ) ;
#146 = DIRECTION ( 'NONE',  ( 1.000000000000000000, 0.000000000000000000, 0.000000000000000000 ) ) ;
#147 = CARTESIAN_POINT ( 'NONE',  ( 0.000000000000000000, 0.000000000000000000, 5.199999999999996625 ) ) ;
#148 = VECTOR ( 'NONE', #75, 1000.000000000000000 ) ;
#149 = CC_DESIGN_APPROVAL ( #168, ( #144 ) ) ;
#150 = APPROVAL_PERSON_ORGANIZATION ( #290, #168, #86 ) ;
#151 = CARTESIAN_POINT ( 'NONE',  ( -8.000000000000000000, 0.000000000000000000, 5.000000000000000000 ) ) ;
#152 = EDGE_CURVE ( 'NONE', #140, #201, #188, .T. ) ;
#153 = ORIENTED_EDGE ( 'NONE', *, *, #299, .T. ) ;
#154 =( NAMED_UNIT ( * ) SI_UNIT ( $, .STERADIAN. ) SOLID_ANGLE_UNIT ( ) );
#155 = EDGE_LOOP ( 'NONE', ( #126, #184 ) ) ;
#156 = TOROIDAL_SURFACE ( 'NONE', #213, 5.699999999999999289, 0.2000000000000000111 ) ;
#157 = TOROIDAL_SURFACE ( 'NONE', #94, 5.699999999999999289, 0.2000000000000000111 ) ;
#158 = CALENDAR_DATE ( 2022, 7, 7 ) ;
#159 = CALENDAR_DATE ( 2022, 7, 7 ) ;
#160 = DIRECTION ( 'NONE',  ( 1.000000000000000000, 0.000000000000000000, 0.000000000000000000 ) ) ;
#161 = CALENDAR_DATE ( 2022, 7, 7 ) ;
#162 = CC_DESIGN_PERSON_AND_ORGANIZATION_ASSIGNMENT ( #63, #268, ( #259 ) ) ;
#163 = LOCAL_TIME ( 11, 49, 29.00000000000000000, #56 ) ;
#164 = UNCERTAINTY_MEASURE_WITH_UNIT (LENGTH_MEASURE( 1.000000000000000082E-05 ), #54, 'distance_accuracy_value', 'NONE');
#165 = DATE_TIME_ROLE ( 'creation_date' ) ;
#166 = APPLICATION_CONTEXT ( 'configuration controlled 3d designs of mechanical parts and assemblies' ) ;
#167 = DIRECTION ( 'NONE',  ( -0.000000000000000000, -0.000000000000000000, -1.000000000000000000 ) ) ;
#168 = APPROVAL ( #85, 'NEURÈENÝ' ) ;
#169 = CARTESIAN_POINT ( 'NONE',  ( -5.500000000000000000, 0.000000000000000000, 5.199999999999996625 ) ) ;
#170 = DIRECTION ( 'NONE',  ( 1.000000000000000000, 0.000000000000000000, -0.000000000000000000 ) ) ;
#171 = VERTEX_POINT ( 'NONE', #169 ) ;
#172 = CARTESIAN_POINT ( 'NONE',  ( 0.000000000000000000, 0.000000000000000000, 5.000000000000000000 ) ) ;
#173 = DIRECTION ( 'NONE',  ( -1.000000000000000000, 0.000000000000000000, 0.000000000000000000 ) ) ;
#174 = ADVANCED_FACE ( 'NONE', ( #141 ), #238, .F. ) ;
#175 = CIRCLE ( 'NONE', #231, 8.000000000000000000 ) ;
#176 = APPROVAL_PERSON_ORGANIZATION ( #111, #102, #60 ) ;
#177 = ORIENTED_EDGE ( 'NONE', *, *, #307, .T. ) ;
#178 = ORIENTED_EDGE ( 'NONE', *, *, #203, .T. ) ;
#179 = APPROVAL_ROLE ( '' ) ;
#180 = ORIENTED_EDGE ( 'NONE', *, *, #152, .T. ) ;
#181 = EDGE_CURVE ( 'NONE', #53, #232, #187, .T. ) ;
#182 = APPROVAL_STATUS ( 'not_yet_approved' ) ;
#183 = CALENDAR_DATE ( 2022, 7, 7 ) ;
#184 = ORIENTED_EDGE ( 'NONE', *, *, #235, .F. ) ;
#185 = CARTESIAN_POINT ( 'NONE',  ( 0.000000000000000000, 0.000000000000000000, 0.000000000000000000 ) ) ;
#186 = PERSON_AND_ORGANIZATION_ROLE ( 'creator' ) ;
#187 = CIRCLE ( 'NONE', #48, 0.1999999999999996503 ) ;
#188 = LINE ( 'NONE', #276, #71 ) ;
#189 = EDGE_CURVE ( 'NONE', #226, #201, #72, .T. ) ;
#190 = FACE_OUTER_BOUND ( 'NONE', #247, .T. ) ;
#191 = LOCAL_TIME ( 11, 49, 29.00000000000000000, #253 ) ;
#192 = DIRECTION ( 'NONE',  ( 0.000000000000000000, 0.000000000000000000, 1.000000000000000000 ) ) ;
#193 = CARTESIAN_POINT ( 'NONE',  ( 0.000000000000000000, 0.000000000000000000, 5.199999999999996625 ) ) ;
#194 = ADVANCED_FACE ( 'NONE', ( #51 ), #157, .F. ) ;
#195 = DIRECTION ( 'NONE',  ( 0.000000000000000000, 0.000000000000000000, -1.000000000000000000 ) ) ;
#196 = CARTESIAN_POINT ( 'NONE',  ( -5.500000000000000000, 0.000000000000000000, 130.0000000000000000 ) ) ;
#197 = FACE_OUTER_BOUND ( 'NONE', #101, .T. ) ;
#198 = ADVANCED_FACE ( 'NONE', ( #260 ), #305, .T. ) ;
#199 = VERTEX_POINT ( 'NONE', #103 ) ;
#200 = CYLINDRICAL_SURFACE ( 'NONE', #55, 5.500000000000000000 ) ;
#201 = VERTEX_POINT ( 'NONE', #281 ) ;
#202 = COORDINATED_UNIVERSAL_TIME_OFFSET ( 1, 0, .AHEAD. ) ;
#203 = EDGE_CURVE ( 'NONE', #171, #53, #31, .T. ) ;
#204 = ORIENTED_EDGE ( 'NONE', *, *, #211, .F. ) ;
#205 = DATE_AND_TIME ( #161, #52 ) ;
#206 = ORIENTED_EDGE ( 'NONE', *, *, #4, .T. ) ;
#207 = PERSON_AND_ORGANIZATION ( #89, #139 ) ;
#208 = CIRCLE ( 'NONE', #41, 8.000000000000000000 ) ;
#209 = ORIENTED_EDGE ( 'NONE', *, *, #211, .T. ) ;
#210 = COORDINATED_UNIVERSAL_TIME_OFFSET ( 1, 0, .AHEAD. ) ;
#211 = EDGE_CURVE ( 'NONE', #132, #232, #248, .T. ) ;
#212 = CALENDAR_DATE ( 2022, 7, 7 ) ;
#213 = AXIS2_PLACEMENT_3D ( 'NONE', #193, #12, #11 ) ;
#214 = LINE ( 'NONE', #36, #62 ) ;
#215 = ADVANCED_FACE ( 'NONE', ( #145 ), #26, .T. ) ;
#216 = CARTESIAN_POINT ( 'NONE',  ( 0.000000000000000000, 0.000000000000000000, 5.199999999999996625 ) ) ;
#217 = DIRECTION ( 'NONE',  ( 1.000000000000000000, 0.000000000000000000, 0.000000000000000000 ) ) ;
#218 = CC_DESIGN_APPROVAL ( #13, ( #259 ) ) ;
#219 = CC_DESIGN_PERSON_AND_ORGANIZATION_ASSIGNMENT ( #128, #3, ( #18 ) ) ;
#220 = PLANE ( 'NONE',  #138 ) ;
#221 = CARTESIAN_POINT ( 'NONE',  ( 0.000000000000000000, 0.000000000000000000, 5.000000000000000000 ) ) ;
#222 = DIRECTION ( 'NONE',  ( -0.000000000000000000, -0.000000000000000000, -1.000000000000000000 ) ) ;
#223 = AXIS2_PLACEMENT_3D ( 'NONE', #270, #65, #69 ) ;
#224 = CARTESIAN_POINT ( 'NONE',  ( 0.000000000000000000, 0.000000000000000000, 130.0000000000000000 ) ) ;
#225 = VECTOR ( 'NONE', #97, 1000.000000000000000 ) ;
#226 = VERTEX_POINT ( 'NONE', #1 ) ;
#227 = CARTESIAN_POINT ( 'NONE',  ( -5.699999999999999289, 6.980486755139912122E-16, 5.199999999999996625 ) ) ;
#228 = MANIFOLD_SOLID_BREP ( 'Zaoblit1', #240 ) ;
#229 = ORIENTED_EDGE ( 'NONE', *, *, #4, .F. ) ;
#230 = DATE_AND_TIME ( #212, #191 ) ;
#231 = AXIS2_PLACEMENT_3D ( 'NONE', #99, #50, #146 ) ;
#232 = VERTEX_POINT ( 'NONE', #121 ) ;
#233 = SHAPE_DEFINITION_REPRESENTATION ( #14, #27 ) ;
#234 = DIRECTION ( 'NONE',  ( 0.000000000000000000, 0.000000000000000000, 1.000000000000000000 ) ) ;
#235 = EDGE_CURVE ( 'NONE', #201, #226, #175, .T. ) ;
#236 = DIRECTION ( 'NONE',  ( 1.000000000000000000, 0.000000000000000000, 0.000000000000000000 ) ) ;
#237 = DIRECTION ( 'NONE',  ( 0.000000000000000000, 0.000000000000000000, 1.000000000000000000 ) ) ;
#238 = PLANE ( 'NONE',  #113 ) ;
#239 = CARTESIAN_POINT ( 'NONE',  ( 0.000000000000000000, 0.000000000000000000, 5.000000000000000000 ) ) ;
#240 = CLOSED_SHELL ( 'NONE', ( #64, #198, #215, #108, #42, #174, #257, #137, #194 ) ) ;
#241 = DIRECTION ( 'NONE',  ( -1.000000000000000000, 0.000000000000000000, 0.000000000000000000 ) ) ;
#242 = DIRECTION ( 'NONE',  ( 1.000000000000000000, 0.000000000000000000, 0.000000000000000000 ) ) ;
#243 = DIRECTION ( 'NONE',  ( -0.000000000000000000, -0.000000000000000000, -1.000000000000000000 ) ) ;
#244 = CARTESIAN_POINT ( 'NONE',  ( 0.000000000000000000, 0.000000000000000000, 130.0000000000000000 ) ) ;
#245 = ORIENTED_EDGE ( 'NONE', *, *, #189, .T. ) ;
#246 = DIRECTION ( 'NONE',  ( 0.000000000000000000, 0.000000000000000000, 1.000000000000000000 ) ) ;
#247 = EDGE_LOOP ( 'NONE', ( #177, #206 ) ) ;
#248 = CIRCLE ( 'NONE', #275, 5.699999999999999289 ) ;
#249 = PERSON_AND_ORGANIZATION_ROLE ( 'design_owner' ) ;
#250 = CC_DESIGN_PERSON_AND_ORGANIZATION_ASSIGNMENT ( #131, #186, ( #18 ) ) ;
#251 = CARTESIAN_POINT ( 'NONE',  ( 0.000000000000000000, 0.000000000000000000, 130.0000000000000000 ) ) ;
#252 = DESIGN_CONTEXT ( 'detailed design', #127, 'design' ) ;
#253 = COORDINATED_UNIVERSAL_TIME_OFFSET ( 1, 0, .AHEAD. ) ;
#254 = DIRECTION ( 'NONE',  ( 0.000000000000000000, 0.000000000000000000, 1.000000000000000000 ) ) ;
#255 = ORIENTED_EDGE ( 'NONE', *, *, #74, .T. ) ;
#256 = CARTESIAN_POINT ( 'NONE',  ( 5.699999999999999289, 0.000000000000000000, 5.199999999999996625 ) ) ;
#257 = ADVANCED_FACE ( 'NONE', ( #197 ), #200, .T. ) ;
#258 = DIRECTION ( 'NONE',  ( 0.000000000000000000, 0.000000000000000000, 1.000000000000000000 ) ) ;
#259 = PRODUCT_DEFINITION ( 'NEZNÁMÝ', '', #18, #252 ) ;
#260 = FACE_OUTER_BOUND ( 'NONE', #289, .T. ) ;
#261 = DIRECTION ( 'NONE',  ( 0.000000000000000000, -1.000000000000000000, 0.000000000000000000 ) ) ;
#262 = AXIS2_PLACEMENT_3D ( 'NONE', #185, #234, #38 ) ;
#263 = EDGE_CURVE ( 'NONE', #76, #171, #302, .T. ) ;
#264 = ORIENTED_EDGE ( 'NONE', *, *, #235, .T. ) ;
#265 = DIRECTION ( 'NONE',  ( 0.000000000000000000, 0.000000000000000000, 1.000000000000000000 ) ) ;
#266 = DATE_AND_TIME ( #159, #39 ) ;
#267 = ORIENTED_EDGE ( 'NONE', *, *, #181, .F. ) ;
#268 = PERSON_AND_ORGANIZATION_ROLE ( 'creator' ) ;
#269 = ORIENTED_EDGE ( 'NONE', *, *, #279, .F. ) ;
#270 = CARTESIAN_POINT ( 'NONE',  ( 0.000000000000000000, 0.000000000000000000, 130.0000000000000000 ) ) ;
#271 = CIRCLE ( 'NONE', #47, 5.500000000000000000 ) ;
#272 = CC_DESIGN_DATE_AND_TIME_ASSIGNMENT ( #35, #165, ( #259 ) ) ;
#273 = ORIENTED_EDGE ( 'NONE', *, *, #263, .F. ) ;
#274 = PLANE ( 'NONE',  #30 ) ;
#275 = AXIS2_PLACEMENT_3D ( 'NONE', #28, #243, #242 ) ;
#276 = CARTESIAN_POINT ( 'NONE',  ( 8.000000000000000000, 9.797174393178825657E-16, 5.000000000000000000 ) ) ;
#277 = DIRECTION ( 'NONE',  ( -0.000000000000000000, -0.000000000000000000, -1.000000000000000000 ) ) ;
#278 = DIRECTION ( 'NONE',  ( 1.000000000000000000, 0.000000000000000000, 0.000000000000000000 ) ) ;
#279 = EDGE_CURVE ( 'NONE', #171, #132, #117, .T. ) ;
#280 = CC_DESIGN_APPROVAL ( #102, ( #18 ) ) ;
#281 = CARTESIAN_POINT ( 'NONE',  ( 8.000000000000000000, 9.797174393178825657E-16, 0.000000000000000000 ) ) ;
#282 = DIRECTION ( 'NONE',  ( -1.000000000000000000, 1.224646799147353454E-16, 0.000000000000000000 ) ) ;
#283 = DIRECTION ( 'NONE',  ( 0.000000000000000000, 0.000000000000000000, 1.000000000000000000 ) ) ;
#284 = EDGE_LOOP ( 'NONE', ( #84, #91, #124, #267 ) ) ;
#285 = CIRCLE ( 'NONE', #223, 5.500000000000000000 ) ;
#286 = AXIS2_PLACEMENT_3D ( 'NONE', #221, #222, #173 ) ;
#287 = CARTESIAN_POINT ( 'NONE',  ( -8.000000000000000000, 0.000000000000000000, 5.000000000000000000 ) ) ;
#288 = DATE_TIME_ROLE ( 'classification_date' ) ;
#289 = EDGE_LOOP ( 'NONE', ( #16, #7, #129, #273 ) ) ;
#290 = PERSON_AND_ORGANIZATION ( #89, #139 ) ;
#291 = ORIENTED_EDGE ( 'NONE', *, *, #24, .T. ) ;
#292 = CIRCLE ( 'NONE', #78, 5.699999999999999289 ) ;
#293 = PERSON_AND_ORGANIZATION_ROLE ( 'classification_officer' ) ;
#294 = APPROVAL_PERSON_ORGANIZATION ( #207, #13, #179 ) ;
#295 = DIRECTION ( 'NONE',  ( 0.000000000000000000, 0.000000000000000000, 1.000000000000000000 ) ) ;
#296 = PERSON_AND_ORGANIZATION ( #89, #139 ) ;
#297 = DIRECTION ( 'NONE',  ( 1.000000000000000000, 0.000000000000000000, -0.000000000000000000 ) ) ;
#298 = CARTESIAN_POINT ( 'NONE',  ( -5.699999999999999289, 6.980486755139912122E-16, 4.999999999999998224 ) ) ;
#299 = EDGE_CURVE ( 'NONE', #306, #226, #70, .T. ) ;
#300 = CARTESIAN_POINT ( 'NONE',  ( 0.000000000000000000, 0.000000000000000000, 0.000000000000000000 ) ) ;
#301 = ORIENTED_EDGE ( 'NONE', *, *, #299, .F. ) ;
#302 = LINE ( 'NONE', #196, #148 ) ;
#303 = AXIS2_PLACEMENT_3D ( 'NONE', #172, #80, #77 ) ;
#304 = DIRECTION ( 'NONE',  ( -0.000000000000000000, -0.000000000000000000, -1.000000000000000000 ) ) ;
#305 = CYLINDRICAL_SURFACE ( 'NONE', #110, 5.500000000000000000 ) ;
#306 = VERTEX_POINT ( 'NONE', #287 ) ;
#307 = EDGE_CURVE ( 'NONE', #306, #140, #9, .T. ) ;
ENDSEC;
END-ISO-10303-21;
