ISO-10303-21;
HEADER;
FILE_DESCRIPTION (( 'STEP AP203' ),
    '1' );
FILE_NAME ('1eac.STEP',
    '2023-02-12T12:25:06',
    ( '' ),
    ( '' ),
    'SwSTEP 2.0',
    'SolidWorks 2019',
    '' );
FILE_SCHEMA (( 'CONFIG_CONTROL_DESIGN' ));
ENDSEC;

DATA;
#1 = MECHANICAL_CONTEXT ( 'NONE', #87, 'mechanical' ) ;
#2 = EDGE_CURVE ( 'NONE', #170, #79, #9, .T. ) ;
#3 = CIRCLE ( 'NONE', #140, 2.750000000000000000 ) ;
#4 = ORIENTED_EDGE ( 'NONE', *, *, #39, .T. ) ;
#5 = PERSON_AND_ORGANIZATION ( #90, #239 ) ;
#6 = AXIS2_PLACEMENT_3D ( 'NONE', #130, #14, #65 ) ;
#7 = DIRECTION ( 'NONE',  ( -1.000000000000000000, 0.000000000000000000, 0.000000000000000000 ) ) ;
#8 = CYLINDRICAL_SURFACE ( 'NONE', #46, 2.750000000000000000 ) ;
#9 = LINE ( 'NONE', #146, #54 ) ;
#10 = DIRECTION ( 'NONE',  ( -0.000000000000000000, -0.000000000000000000, -1.000000000000000000 ) ) ;
#11 = DATE_AND_TIME ( #172, #95 ) ;
#12 = FACE_OUTER_BOUND ( 'NONE', #209, .T. ) ;
#13 = DIRECTION ( 'NONE',  ( 0.000000000000000000, 0.000000000000000000, 1.000000000000000000 ) ) ;
#14 = DIRECTION ( 'NONE',  ( 0.000000000000000000, 0.000000000000000000, 1.000000000000000000 ) ) ;
#15 = LOCAL_TIME ( 13, 25, 6.000000000000000000, #169 ) ;
#16 = APPLICATION_PROTOCOL_DEFINITION ( 'international standard', 'config_control_design', 1994, #234 ) ;
#17 = CC_DESIGN_DATE_AND_TIME_ASSIGNMENT ( #204, #58, ( #206 ) ) ;
#18 = ORIENTED_EDGE ( 'NONE', *, *, #241, .T. ) ;
#19 = COORDINATED_UNIVERSAL_TIME_OFFSET ( 1, 0, .AHEAD. ) ;
#20 = VERTEX_POINT ( 'NONE', #42 ) ;
#21 = EDGE_CURVE ( 'NONE', #20, #182, #224, .T. ) ;
#22 = ORIENTED_EDGE ( 'NONE', *, *, #113, .T. ) ;
#23 = SECURITY_CLASSIFICATION ( '', '', #166 ) ;
#24 = AXIS2_PLACEMENT_3D ( 'NONE', #216, #13, #228 ) ;
#25 = PERSON_AND_ORGANIZATION_ROLE ( 'design_supplier' ) ;
#26 = CARTESIAN_POINT ( 'NONE',  ( 0.000000000000000000, 0.000000000000000000, 0.000000000000000000 ) ) ;
#27 = VERTEX_POINT ( 'NONE', #213 ) ;
#28 = APPROVAL_STATUS ( 'not_yet_approved' ) ;
#29 = DIRECTION ( 'NONE',  ( 1.000000000000000000, 0.000000000000000000, -0.000000000000000000 ) ) ;
#30 = CARTESIAN_POINT ( 'NONE',  ( 0.000000000000000000, 0.000000000000000000, 250.0000000000000000 ) ) ;
#31 = FACE_BOUND ( 'NONE', #38, .T. ) ;
#32 = DIRECTION ( 'NONE',  ( 0.000000000000000000, 0.000000000000000000, 1.000000000000000000 ) ) ;
#33 = PERSON_AND_ORGANIZATION ( #90, #239 ) ;
#34 = EDGE_CURVE ( 'NONE', #121, #118, #84, .T. ) ;
#35 = APPROVAL ( #244, 'NEURÈENÝ' ) ;
#36 = PRODUCT_DEFINITION_FORMATION_WITH_SPECIFIED_SOURCE ( 'LIBOVOLNÝ', '', #163, .NOT_KNOWN. ) ;
#37 = DIRECTION ( 'NONE',  ( 0.000000000000000000, 0.000000000000000000, 1.000000000000000000 ) ) ;
#38 = EDGE_LOOP ( 'NONE', ( #236, #165 ) ) ;
#39 = EDGE_CURVE ( 'NONE', #170, #230, #62, .T. ) ;
#40 = COORDINATED_UNIVERSAL_TIME_OFFSET ( 1, 0, .AHEAD. ) ;
#41 = DIRECTION ( 'NONE',  ( 0.000000000000000000, 0.000000000000000000, 1.000000000000000000 ) ) ;
#42 = CARTESIAN_POINT ( 'NONE',  ( -5.000000000000000000, 0.000000000000000000, 3.000000000000000000 ) ) ;
#43 = FACE_OUTER_BOUND ( 'NONE', #221, .T. ) ;
#44 = CIRCLE ( 'NONE', #101, 5.000000000000000000 ) ;
#45 = ORIENTED_EDGE ( 'NONE', *, *, #39, .F. ) ;
#46 = AXIS2_PLACEMENT_3D ( 'NONE', #30, #111, #195 ) ;
#47 = PERSON_AND_ORGANIZATION ( #90, #239 ) ;
#48 = FACE_OUTER_BOUND ( 'NONE', #205, .T. ) ;
#49 = CARTESIAN_POINT ( 'NONE',  ( -5.000000000000000000, 0.000000000000000000, 0.000000000000000000 ) ) ;
#50 =( NAMED_UNIT ( * ) SI_UNIT ( $, .STERADIAN. ) SOLID_ANGLE_UNIT ( ) );
#51 = CARTESIAN_POINT ( 'NONE',  ( 0.000000000000000000, 0.000000000000000000, 250.0000000000000000 ) ) ;
#52 = CARTESIAN_POINT ( 'NONE',  ( -2.750000000000000000, 0.000000000000000000, 250.0000000000000000 ) ) ;
#53 = CC_DESIGN_PERSON_AND_ORGANIZATION_ASSIGNMENT ( #33, #200, ( #163 ) ) ;
#54 = VECTOR ( 'NONE', #81, 1000.000000000000000 ) ;
#55 = PERSON_AND_ORGANIZATION ( #90, #239 ) ;
#56 = DIRECTION ( 'NONE',  ( -0.000000000000000000, -0.000000000000000000, -1.000000000000000000 ) ) ;
#57 = ORIENTED_EDGE ( 'NONE', *, *, #117, .T. ) ;
#58 = DATE_TIME_ROLE ( 'creation_date' ) ;
#59 = CYLINDRICAL_SURFACE ( 'NONE', #161, 2.750000000000000000 ) ;
#60 = CARTESIAN_POINT ( 'NONE',  ( -5.000000000000000000, 0.000000000000000000, 3.000000000000000000 ) ) ;
#61 = CARTESIAN_POINT ( 'NONE',  ( 2.750000000000000000, 3.367778697655221012E-16, 3.000000000000000000 ) ) ;
#62 = CIRCLE ( 'NONE', #157, 2.750000000000000000 ) ;
#63 = PERSON_AND_ORGANIZATION ( #90, #239 ) ;
#64 = DIRECTION ( 'NONE',  ( 1.000000000000000000, 0.000000000000000000, 0.000000000000000000 ) ) ;
#65 = DIRECTION ( 'NONE',  ( 1.000000000000000000, 0.000000000000000000, 0.000000000000000000 ) ) ;
#66 = DIRECTION ( 'NONE',  ( 0.000000000000000000, 0.000000000000000000, 1.000000000000000000 ) ) ;
#67 = AXIS2_PLACEMENT_3D ( 'NONE', #51, #66, #71 ) ;
#68 = CIRCLE ( 'NONE', #254, 5.000000000000000000 ) ;
#69 = ADVANCED_FACE ( 'NONE', ( #76 ), #247, .T. ) ;
#70 = CARTESIAN_POINT ( 'NONE',  ( 0.000000000000000000, 0.000000000000000000, 250.0000000000000000 ) ) ;
#71 = DIRECTION ( 'NONE',  ( 1.000000000000000000, 0.000000000000000000, 0.000000000000000000 ) ) ;
#72 = CC_DESIGN_PERSON_AND_ORGANIZATION_ASSIGNMENT ( #5, #183, ( #23 ) ) ;
#73 = ORIENTED_EDGE ( 'NONE', *, *, #235, .F. ) ;
#74 = AXIS2_PLACEMENT_3D ( 'NONE', #70, #32, #134 ) ;
#75 = ADVANCED_FACE ( 'NONE', ( #12 ), #248, .T. ) ;
#76 = FACE_OUTER_BOUND ( 'NONE', #106, .T. ) ;
#77 = CIRCLE ( 'NONE', #24, 5.000000000000000000 ) ;
#78 = DATE_AND_TIME ( #99, #15 ) ;
#79 = VERTEX_POINT ( 'NONE', #61 ) ;
#80 = DIRECTION ( 'NONE',  ( 1.000000000000000000, 0.000000000000000000, -0.000000000000000000 ) ) ;
#81 = DIRECTION ( 'NONE',  ( -0.000000000000000000, -0.000000000000000000, -1.000000000000000000 ) ) ;
#82 = DATE_AND_TIME ( #207, #222 ) ;
#83 = DIRECTION ( 'NONE',  ( -1.000000000000000000, 0.000000000000000000, 0.000000000000000000 ) ) ;
#84 = LINE ( 'NONE', #243, #162 ) ;
#85 = SHAPE_DEFINITION_REPRESENTATION ( #180, #217 ) ;
#86 = DIRECTION ( 'NONE',  ( 0.000000000000000000, 0.000000000000000000, 1.000000000000000000 ) ) ;
#87 = APPLICATION_CONTEXT ( 'configuration controlled 3d designs of mechanical parts and assemblies' ) ;
#88 = CARTESIAN_POINT ( 'NONE',  ( 0.000000000000000000, 0.000000000000000000, 0.000000000000000000 ) ) ;
#89 = EDGE_CURVE ( 'NONE', #182, #118, #238, .T. ) ;
#90 = PERSON ( 'NEURÈENÝ', 'NEURÈENÝ', 'NEURÈENÝ', ('NEURÈENÝ'), ('NEURÈENÝ'), ('NEURÈENÝ') ) ;
#91 = PLANE ( 'NONE',  #74 ) ;
#92 = AXIS2_PLACEMENT_3D ( 'NONE', #141, #56, #7 ) ;
#93 =( GEOMETRIC_REPRESENTATION_CONTEXT ( 3 ) GLOBAL_UNCERTAINTY_ASSIGNED_CONTEXT ( ( #155 ) ) GLOBAL_UNIT_ASSIGNED_CONTEXT ( ( #197, #218, #50 ) ) REPRESENTATION_CONTEXT ( 'NONE', 'WORKASPACE' ) );
#94 = APPLICATION_PROTOCOL_DEFINITION ( 'international standard', 'config_control_design', 1994, #87 ) ;
#95 = LOCAL_TIME ( 13, 25, 6.000000000000000000, #144 ) ;
#96 = ORIENTED_EDGE ( 'NONE', *, *, #219, .T. ) ;
#97 = ORIENTED_EDGE ( 'NONE', *, *, #152, .T. ) ;
#98 = EDGE_LOOP ( 'NONE', ( #143, #245 ) ) ;
#99 = CALENDAR_DATE ( 2023, 12, 2 ) ;
#100 = DIRECTION ( 'NONE',  ( 1.000000000000000000, 0.000000000000000000, 0.000000000000000000 ) ) ;
#101 = AXIS2_PLACEMENT_3D ( 'NONE', #26, #108, #158 ) ;
#102 = DATE_AND_TIME ( #192, #187 ) ;
#103 = CC_DESIGN_APPROVAL ( #251, ( #36 ) ) ;
#104 = CARTESIAN_POINT ( 'NONE',  ( 5.000000000000000000, 6.123233995736766282E-16, 3.000000000000000000 ) ) ;
#105 = CLOSED_SHELL ( 'NONE', ( #201, #69, #75, #184, #137, #159, #250 ) ) ;
#106 = EDGE_LOOP ( 'NONE', ( #237, #223, #96, #119 ) ) ;
#107 = PERSON_AND_ORGANIZATION ( #90, #239 ) ;
#108 = DIRECTION ( 'NONE',  ( 0.000000000000000000, 0.000000000000000000, 1.000000000000000000 ) ) ;
#109 = ORIENTED_EDGE ( 'NONE', *, *, #21, .T. ) ;
#110 = PERSON_AND_ORGANIZATION ( #90, #239 ) ;
#111 = DIRECTION ( 'NONE',  ( -0.000000000000000000, -0.000000000000000000, -1.000000000000000000 ) ) ;
#112 = DIRECTION ( 'NONE',  ( 0.000000000000000000, 0.000000000000000000, 1.000000000000000000 ) ) ;
#113 = EDGE_CURVE ( 'NONE', #27, #79, #188, .T. ) ;
#114 = CC_DESIGN_APPROVAL ( #154, ( #23 ) ) ;
#115 = DIRECTION ( 'NONE',  ( 0.000000000000000000, 0.000000000000000000, 1.000000000000000000 ) ) ;
#116 = AXIS2_PLACEMENT_3D ( 'NONE', #173, #112, #29 ) ;
#117 = EDGE_CURVE ( 'NONE', #20, #121, #68, .T. ) ;
#118 = VERTEX_POINT ( 'NONE', #190 ) ;
#119 = ORIENTED_EDGE ( 'NONE', *, *, #21, .F. ) ;
#120 = COORDINATED_UNIVERSAL_TIME_OFFSET ( 1, 0, .AHEAD. ) ;
#121 = VERTEX_POINT ( 'NONE', #104 ) ;
#122 = PERSON_AND_ORGANIZATION_ROLE ( 'creator' ) ;
#123 = FACE_OUTER_BOUND ( 'NONE', #240, .T. ) ;
#124 = CARTESIAN_POINT ( 'NONE',  ( 0.000000000000000000, 0.000000000000000000, 250.0000000000000000 ) ) ;
#125 = AXIS2_PLACEMENT_3D ( 'NONE', #131, #10, #83 ) ;
#126 = DIRECTION ( 'NONE',  ( -0.000000000000000000, -0.000000000000000000, -1.000000000000000000 ) ) ;
#127 = APPROVAL_PERSON_ORGANIZATION ( #47, #35, #227 ) ;
#128 = ORIENTED_EDGE ( 'NONE', *, *, #2, .T. ) ;
#129 = CALENDAR_DATE ( 2023, 12, 2 ) ;
#130 = CARTESIAN_POINT ( 'NONE',  ( 0.000000000000000000, 0.000000000000000000, 3.000000000000000000 ) ) ;
#131 = CARTESIAN_POINT ( 'NONE',  ( 0.000000000000000000, 0.000000000000000000, 3.000000000000000000 ) ) ;
#132 = DIRECTION ( 'NONE',  ( 1.000000000000000000, 0.000000000000000000, 0.000000000000000000 ) ) ;
#133 = FACE_OUTER_BOUND ( 'NONE', #191, .T. ) ;
#134 = DIRECTION ( 'NONE',  ( 1.000000000000000000, 0.000000000000000000, -0.000000000000000000 ) ) ;
#135 = DIRECTION ( 'NONE',  ( 1.000000000000000000, 0.000000000000000000, 0.000000000000000000 ) ) ;
#136 = ORIENTED_EDGE ( 'NONE', *, *, #235, .T. ) ;
#137 = ADVANCED_FACE ( 'NONE', ( #215 ), #145, .F. ) ;
#138 = AXIS2_PLACEMENT_3D ( 'NONE', #220, #115, #135 ) ;
#139 = CC_DESIGN_SECURITY_CLASSIFICATION ( #23, ( #36 ) ) ;
#140 = AXIS2_PLACEMENT_3D ( 'NONE', #249, #231, #64 ) ;
#141 = CARTESIAN_POINT ( 'NONE',  ( 0.000000000000000000, 0.000000000000000000, 3.000000000000000000 ) ) ;
#142 = DESIGN_CONTEXT ( 'detailed design', #234, 'design' ) ;
#143 = ORIENTED_EDGE ( 'NONE', *, *, #89, .F. ) ;
#144 = COORDINATED_UNIVERSAL_TIME_OFFSET ( 1, 0, .AHEAD. ) ;
#145 = PLANE ( 'NONE',  #116 ) ;
#146 = CARTESIAN_POINT ( 'NONE',  ( 2.750000000000000000, 3.367778697655221012E-16, 250.0000000000000000 ) ) ;
#147 = APPROVAL_ROLE ( '' ) ;
#148 = CARTESIAN_POINT ( 'NONE',  ( 0.000000000000000000, 0.000000000000000000, 250.0000000000000000 ) ) ;
#149 = ORIENTED_EDGE ( 'NONE', *, *, #89, .T. ) ;
#150 = DATE_TIME_ROLE ( 'classification_date' ) ;
#151 = MANIFOLD_SOLID_BREP ( 'Pøidat vysunutím3', #105 ) ;
#152 = EDGE_CURVE ( 'NONE', #79, #27, #3, .T. ) ;
#153 = CARTESIAN_POINT ( 'NONE',  ( 2.750000000000000000, 3.367778697655221012E-16, 250.0000000000000000 ) ) ;
#154 = APPROVAL ( #189, 'NEURÈENÝ' ) ;
#155 = UNCERTAINTY_MEASURE_WITH_UNIT (LENGTH_MEASURE( 1.000000000000000082E-05 ), #197, 'distance_accuracy_value', 'NONE');
#156 = LOCAL_TIME ( 13, 25, 6.000000000000000000, #120 ) ;
#157 = AXIS2_PLACEMENT_3D ( 'NONE', #124, #37, #100 ) ;
#158 = DIRECTION ( 'NONE',  ( 1.000000000000000000, 0.000000000000000000, 0.000000000000000000 ) ) ;
#159 = ADVANCED_FACE ( 'NONE', ( #48 ), #8, .T. ) ;
#160 = CC_DESIGN_DATE_AND_TIME_ASSIGNMENT ( #102, #150, ( #23 ) ) ;
#161 = AXIS2_PLACEMENT_3D ( 'NONE', #148, #126, #212 ) ;
#162 = VECTOR ( 'NONE', #225, 1000.000000000000000 ) ;
#163 = PRODUCT ( '1eac', '1eac', '', ( #1 ) ) ;
#164 = APPROVAL_DATE_TIME ( #78, #35 ) ;
#165 = ORIENTED_EDGE ( 'NONE', *, *, #152, .F. ) ;
#166 = SECURITY_CLASSIFICATION_LEVEL ( 'unclassified' ) ;
#167 = DIRECTION ( 'NONE',  ( -0.000000000000000000, -0.000000000000000000, -1.000000000000000000 ) ) ;
#168 = EDGE_CURVE ( 'NONE', #121, #20, #77, .T. ) ;
#169 = COORDINATED_UNIVERSAL_TIME_OFFSET ( 1, 0, .AHEAD. ) ;
#170 = VERTEX_POINT ( 'NONE', #153 ) ;
#171 = APPROVAL_DATE_TIME ( #82, #251 ) ;
#172 = CALENDAR_DATE ( 2023, 12, 2 ) ;
#173 = CARTESIAN_POINT ( 'NONE',  ( 0.000000000000000000, 0.000000000000000000, 0.000000000000000000 ) ) ;
#174 = PRODUCT_RELATED_PRODUCT_CATEGORY ( 'detail', '', ( #163 ) ) ;
#175 = DIRECTION ( 'NONE',  ( 0.000000000000000000, 0.000000000000000000, 1.000000000000000000 ) ) ;
#176 = CARTESIAN_POINT ( 'NONE',  ( 0.000000000000000000, 0.000000000000000000, 3.000000000000000000 ) ) ;
#177 = DIRECTION ( 'NONE',  ( -0.000000000000000000, -0.000000000000000000, -1.000000000000000000 ) ) ;
#178 = APPROVAL_PERSON_ORGANIZATION ( #110, #154, #246 ) ;
#179 = CC_DESIGN_PERSON_AND_ORGANIZATION_ASSIGNMENT ( #107, #194, ( #36 ) ) ;
#180 = PRODUCT_DEFINITION_SHAPE ( 'NONE', 'NONE',  #206 ) ;
#181 = ORIENTED_EDGE ( 'NONE', *, *, #34, .F. ) ;
#182 = VERTEX_POINT ( 'NONE', #49 ) ;
#183 = PERSON_AND_ORGANIZATION_ROLE ( 'classification_officer' ) ;
#184 = ADVANCED_FACE ( 'NONE', ( #31, #43 ), #196, .T. ) ;
#185 = ORIENTED_EDGE ( 'NONE', *, *, #2, .F. ) ;
#186 = APPROVAL_PERSON_ORGANIZATION ( #55, #251, #147 ) ;
#187 = LOCAL_TIME ( 13, 25, 6.000000000000000000, #40 ) ;
#188 = CIRCLE ( 'NONE', #6, 2.750000000000000000 ) ;
#189 = APPROVAL_STATUS ( 'not_yet_approved' ) ;
#190 = CARTESIAN_POINT ( 'NONE',  ( 5.000000000000000000, 6.123233995736766282E-16, 0.000000000000000000 ) ) ;
#191 = EDGE_LOOP ( 'NONE', ( #136, #4 ) ) ;
#192 = CALENDAR_DATE ( 2023, 12, 2 ) ;
#193 = ORIENTED_EDGE ( 'NONE', *, *, #117, .F. ) ;
#194 = PERSON_AND_ORGANIZATION_ROLE ( 'creator' ) ;
#195 = DIRECTION ( 'NONE',  ( -1.000000000000000000, 0.000000000000000000, 0.000000000000000000 ) ) ;
#196 = PLANE ( 'NONE',  #211 ) ;
#197 =( LENGTH_UNIT ( ) NAMED_UNIT ( * ) SI_UNIT ( .MILLI., .METRE. ) );
#198 = AXIS2_PLACEMENT_3D ( 'NONE', #88, #175, #132 ) ;
#199 = VECTOR ( 'NONE', #177, 1000.000000000000000 ) ;
#200 = PERSON_AND_ORGANIZATION_ROLE ( 'design_owner' ) ;
#201 = ADVANCED_FACE ( 'NONE', ( #123 ), #59, .T. ) ;
#202 = CC_DESIGN_PERSON_AND_ORGANIZATION_ASSIGNMENT ( #214, #122, ( #206 ) ) ;
#203 = ORIENTED_EDGE ( 'NONE', *, *, #168, .T. ) ;
#204 = DATE_AND_TIME ( #129, #156 ) ;
#205 = EDGE_LOOP ( 'NONE', ( #185, #73, #18, #22 ) ) ;
#206 = PRODUCT_DEFINITION ( 'NEZNÁMÝ', '', #36, #142 ) ;
#207 = CALENDAR_DATE ( 2023, 12, 2 ) ;
#208 = DIRECTION ( 'NONE',  ( 1.000000000000000000, 0.000000000000000000, 0.000000000000000000 ) ) ;
#209 = EDGE_LOOP ( 'NONE', ( #181, #193, #109, #149 ) ) ;
#210 = VECTOR ( 'NONE', #167, 1000.000000000000000 ) ;
#211 = AXIS2_PLACEMENT_3D ( 'NONE', #176, #41, #80 ) ;
#212 = DIRECTION ( 'NONE',  ( -1.000000000000000000, 0.000000000000000000, 0.000000000000000000 ) ) ;
#213 = CARTESIAN_POINT ( 'NONE',  ( -2.750000000000000000, 0.000000000000000000, 3.000000000000000000 ) ) ;
#214 = PERSON_AND_ORGANIZATION ( #90, #239 ) ;
#215 = FACE_OUTER_BOUND ( 'NONE', #98, .T. ) ;
#216 = CARTESIAN_POINT ( 'NONE',  ( 0.000000000000000000, 0.000000000000000000, 3.000000000000000000 ) ) ;
#217 = ADVANCED_BREP_SHAPE_REPRESENTATION ( '1eac', ( #151, #138 ), #93 ) ;
#218 =( NAMED_UNIT ( * ) PLANE_ANGLE_UNIT ( ) SI_UNIT ( $, .RADIAN. ) );
#219 = EDGE_CURVE ( 'NONE', #118, #182, #44, .T. ) ;
#220 = CARTESIAN_POINT ( 'NONE',  ( 0.000000000000000000, 0.000000000000000000, 0.000000000000000000 ) ) ;
#221 = EDGE_LOOP ( 'NONE', ( #57, #203 ) ) ;
#222 = LOCAL_TIME ( 13, 25, 6.000000000000000000, #19 ) ;
#223 = ORIENTED_EDGE ( 'NONE', *, *, #34, .T. ) ;
#224 = LINE ( 'NONE', #60, #210 ) ;
#225 = DIRECTION ( 'NONE',  ( -0.000000000000000000, -0.000000000000000000, -1.000000000000000000 ) ) ;
#226 = CC_DESIGN_PERSON_AND_ORGANIZATION_ASSIGNMENT ( #63, #25, ( #36 ) ) ;
#227 = APPROVAL_ROLE ( '' ) ;
#228 = DIRECTION ( 'NONE',  ( 1.000000000000000000, 0.000000000000000000, 0.000000000000000000 ) ) ;
#229 = ORIENTED_EDGE ( 'NONE', *, *, #241, .F. ) ;
#230 = VERTEX_POINT ( 'NONE', #255 ) ;
#231 = DIRECTION ( 'NONE',  ( 0.000000000000000000, 0.000000000000000000, 1.000000000000000000 ) ) ;
#232 = CARTESIAN_POINT ( 'NONE',  ( 0.000000000000000000, 0.000000000000000000, 3.000000000000000000 ) ) ;
#233 = CC_DESIGN_APPROVAL ( #35, ( #206 ) ) ;
#234 = APPLICATION_CONTEXT ( 'configuration controlled 3d designs of mechanical parts and assemblies' ) ;
#235 = EDGE_CURVE ( 'NONE', #230, #170, #252, .T. ) ;
#236 = ORIENTED_EDGE ( 'NONE', *, *, #113, .F. ) ;
#237 = ORIENTED_EDGE ( 'NONE', *, *, #168, .F. ) ;
#238 = CIRCLE ( 'NONE', #198, 5.000000000000000000 ) ;
#239 = ORGANIZATION ( 'NEURÈENÝ', 'NEURÈENÝ', '' ) ;
#240 = EDGE_LOOP ( 'NONE', ( #45, #128, #97, #229 ) ) ;
#241 = EDGE_CURVE ( 'NONE', #230, #27, #253, .T. ) ;
#242 = APPROVAL_DATE_TIME ( #11, #154 ) ;
#243 = CARTESIAN_POINT ( 'NONE',  ( 5.000000000000000000, 6.123233995736766282E-16, 3.000000000000000000 ) ) ;
#244 = APPROVAL_STATUS ( 'not_yet_approved' ) ;
#245 = ORIENTED_EDGE ( 'NONE', *, *, #219, .F. ) ;
#246 = APPROVAL_ROLE ( '' ) ;
#247 = CYLINDRICAL_SURFACE ( 'NONE', #92, 5.000000000000000000 ) ;
#248 = CYLINDRICAL_SURFACE ( 'NONE', #125, 5.000000000000000000 ) ;
#249 = CARTESIAN_POINT ( 'NONE',  ( 0.000000000000000000, 0.000000000000000000, 3.000000000000000000 ) ) ;
#250 = ADVANCED_FACE ( 'NONE', ( #133 ), #91, .T. ) ;
#251 = APPROVAL ( #28, 'NEURÈENÝ' ) ;
#252 = CIRCLE ( 'NONE', #67, 2.750000000000000000 ) ;
#253 = LINE ( 'NONE', #52, #199 ) ;
#254 = AXIS2_PLACEMENT_3D ( 'NONE', #232, #86, #208 ) ;
#255 = CARTESIAN_POINT ( 'NONE',  ( -2.750000000000000000, 0.000000000000000000, 250.0000000000000000 ) ) ;
ENDSEC;
END-ISO-10303-21;
