ISO-10303-21;
HEADER;
FILE_DESCRIPTION (( 'STEP AP203' ),
    '1' );
FILE_NAME ('22a1.STEP',
    '2023-02-12T12:32:35',
    ( '' ),
    ( '' ),
    'SwSTEP 2.0',
    'SolidWorks 2019',
    '' );
FILE_SCHEMA (( 'CONFIG_CONTROL_DESIGN' ));
ENDSEC;

DATA;
#1 = ORIENTED_EDGE ( 'NONE', *, *, #44, .T. ) ;
#2 = APPROVAL_DATE_TIME ( #5, #118 ) ;
#3 = ORIENTED_EDGE ( 'NONE', *, *, #65, .T. ) ;
#4 = PRODUCT_DEFINITION_FORMATION_WITH_SPECIFIED_SOURCE ( 'LIBOVOLNÝ', '', #231, .NOT_KNOWN. ) ;
#5 = DATE_AND_TIME ( #153, #183 ) ;
#6 = ADVANCED_BREP_SHAPE_REPRESENTATION ( '22a1', ( #127, #250 ), #90 ) ;
#7 = AXIS2_PLACEMENT_3D ( 'NONE', #10, #251, #11 ) ;
#8 = LOCAL_TIME ( 13, 32, 35.00000000000000000, #160 ) ;
#9 = PERSON_AND_ORGANIZATION_ROLE ( 'design_owner' ) ;
#10 = CARTESIAN_POINT ( 'NONE',  ( 0.000000000000000000, 0.000000000000000000, 500.0000000000000000 ) ) ;
#11 = DIRECTION ( 'NONE',  ( 1.000000000000000000, 0.000000000000000000, 0.000000000000000000 ) ) ;
#12 = LOCAL_TIME ( 13, 32, 35.00000000000000000, #29 ) ;
#13 = DIRECTION ( 'NONE',  ( 1.000000000000000000, 0.000000000000000000, 0.000000000000000000 ) ) ;
#14 = VERTEX_POINT ( 'NONE', #108 ) ;
#15 = CC_DESIGN_PERSON_AND_ORGANIZATION_ASSIGNMENT ( #24, #146, ( #4 ) ) ;
#16 =( NAMED_UNIT ( * ) PLANE_ANGLE_UNIT ( ) SI_UNIT ( $, .RADIAN. ) );
#17 = AXIS2_PLACEMENT_3D ( 'NONE', #225, #51, #109 ) ;
#18 = ORIENTED_EDGE ( 'NONE', *, *, #200, .F. ) ;
#19 = PERSON_AND_ORGANIZATION ( #54, #208 ) ;
#20 = DIRECTION ( 'NONE',  ( 0.000000000000000000, 0.000000000000000000, 1.000000000000000000 ) ) ;
#21 = EDGE_CURVE ( 'NONE', #14, #140, #116, .T. ) ;
#22 = ORIENTED_EDGE ( 'NONE', *, *, #201, .T. ) ;
#23 = DIRECTION ( 'NONE',  ( 1.000000000000000000, 0.000000000000000000, 0.000000000000000000 ) ) ;
#24 = PERSON_AND_ORGANIZATION ( #54, #208 ) ;
#25 = ADVANCED_FACE ( 'NONE', ( #86 ), #199, .F. ) ;
#26 = AXIS2_PLACEMENT_3D ( 'NONE', #82, #83, #23 ) ;
#27 = ADVANCED_FACE ( 'NONE', ( #245 ), #84, .T. ) ;
#28 = APPROVAL_PERSON_ORGANIZATION ( #72, #150, #124 ) ;
#29 = COORDINATED_UNIVERSAL_TIME_OFFSET ( 1, 0, .AHEAD. ) ;
#30 = DIRECTION ( 'NONE',  ( -0.000000000000000000, -0.000000000000000000, -1.000000000000000000 ) ) ;
#31 = CARTESIAN_POINT ( 'NONE',  ( 0.000000000000000000, 0.000000000000000000, 500.0000000000000000 ) ) ;
#32 = EDGE_CURVE ( 'NONE', #140, #40, #47, .T. ) ;
#33 = DIRECTION ( 'NONE',  ( 1.000000000000000000, 0.000000000000000000, 0.000000000000000000 ) ) ;
#34 = CIRCLE ( 'NONE', #249, 4.000000000000000000 ) ;
#35 = LINE ( 'NONE', #172, #106 ) ;
#36 = VERTEX_POINT ( 'NONE', #110 ) ;
#37 = CC_DESIGN_PERSON_AND_ORGANIZATION_ASSIGNMENT ( #219, #9, ( #231 ) ) ;
#38 = VERTEX_POINT ( 'NONE', #64 ) ;
#39 = DIRECTION ( 'NONE',  ( 0.000000000000000000, 0.000000000000000000, 1.000000000000000000 ) ) ;
#40 = VERTEX_POINT ( 'NONE', #180 ) ;
#41 = ORIENTED_EDGE ( 'NONE', *, *, #141, .T. ) ;
#42 = SHAPE_DEFINITION_REPRESENTATION ( #203, #6 ) ;
#43 = VECTOR ( 'NONE', #234, 1000.000000000000000 ) ;
#44 = EDGE_CURVE ( 'NONE', #144, #255, #89, .T. ) ;
#45 = ADVANCED_FACE ( 'NONE', ( #130 ), #112, .T. ) ;
#46 = PERSON_AND_ORGANIZATION ( #54, #208 ) ;
#47 = LINE ( 'NONE', #129, #178 ) ;
#48 = APPROVAL_ROLE ( '' ) ;
#49 = PRODUCT_RELATED_PRODUCT_CATEGORY ( 'detail', '', ( #231 ) ) ;
#50 = AXIS2_PLACEMENT_3D ( 'NONE', #196, #69, #70 ) ;
#51 = DIRECTION ( 'NONE',  ( -0.000000000000000000, -0.000000000000000000, -1.000000000000000000 ) ) ;
#52 = DATE_AND_TIME ( #198, #8 ) ;
#53 = FACE_OUTER_BOUND ( 'NONE', #121, .T. ) ;
#54 = PERSON ( 'NEURÈENÝ', 'NEURÈENÝ', 'NEURÈENÝ', ('NEURÈENÝ'), ('NEURÈENÝ'), ('NEURÈENÝ') ) ;
#55 = DIRECTION ( 'NONE',  ( 0.000000000000000000, 0.000000000000000000, 1.000000000000000000 ) ) ;
#56 = ADVANCED_FACE ( 'NONE', ( #133 ), #204, .T. ) ;
#57 = ORIENTED_EDGE ( 'NONE', *, *, #21, .F. ) ;
#58 = CARTESIAN_POINT ( 'NONE',  ( 0.000000000000000000, 0.000000000000000000, 500.0000000000000000 ) ) ;
#59 = CIRCLE ( 'NONE', #93, 4.000000000000000000 ) ;
#60 = ORIENTED_EDGE ( 'NONE', *, *, #32, .T. ) ;
#61 = EDGE_LOOP ( 'NONE', ( #194, #62, #213, #1 ) ) ;
#62 = ORIENTED_EDGE ( 'NONE', *, *, #65, .F. ) ;
#63 = DIRECTION ( 'NONE',  ( 1.000000000000000000, 0.000000000000000000, 0.000000000000000000 ) ) ;
#64 = CARTESIAN_POINT ( 'NONE',  ( 4.000000000000000000, 4.898587196589412829E-16, 0.000000000000000000 ) ) ;
#65 = EDGE_CURVE ( 'NONE', #36, #233, #216, .T. ) ;
#66 = DESIGN_CONTEXT ( 'detailed design', #156, 'design' ) ;
#67 = AXIS2_PLACEMENT_3D ( 'NONE', #131, #30, #184 ) ;
#68 = SECURITY_CLASSIFICATION_LEVEL ( 'unclassified' ) ;
#69 = DIRECTION ( 'NONE',  ( 0.000000000000000000, 0.000000000000000000, 1.000000000000000000 ) ) ;
#70 = DIRECTION ( 'NONE',  ( 1.000000000000000000, 0.000000000000000000, 0.000000000000000000 ) ) ;
#71 = ADVANCED_FACE ( 'NONE', ( #114 ), #206, .T. ) ;
#72 = PERSON_AND_ORGANIZATION ( #54, #208 ) ;
#73 = PERSON_AND_ORGANIZATION ( #54, #208 ) ;
#74 = CARTESIAN_POINT ( 'NONE',  ( 0.000000000000000000, 0.000000000000000000, 500.0000000000000000 ) ) ;
#75 = AXIS2_PLACEMENT_3D ( 'NONE', #74, #229, #232 ) ;
#76 = EDGE_CURVE ( 'NONE', #40, #38, #34, .T. ) ;
#77 = SECURITY_CLASSIFICATION ( '', '', #68 ) ;
#78 = CARTESIAN_POINT ( 'NONE',  ( -2.250000000000000000, 0.000000000000000000, 3.000000000000000000 ) ) ;
#79 = CALENDAR_DATE ( 2023, 12, 2 ) ;
#80 = APPROVAL_ROLE ( '' ) ;
#81 = DIRECTION ( 'NONE',  ( 1.000000000000000000, 0.000000000000000000, 0.000000000000000000 ) ) ;
#82 = CARTESIAN_POINT ( 'NONE',  ( 0.000000000000000000, 0.000000000000000000, 3.000000000000000000 ) ) ;
#83 = DIRECTION ( 'NONE',  ( 0.000000000000000000, 0.000000000000000000, 1.000000000000000000 ) ) ;
#84 = CYLINDRICAL_SURFACE ( 'NONE', #17, 4.000000000000000000 ) ;
#85 = PERSON_AND_ORGANIZATION_ROLE ( 'design_supplier' ) ;
#86 = FACE_OUTER_BOUND ( 'NONE', #242, .T. ) ;
#87 = LOCAL_TIME ( 13, 32, 35.00000000000000000, #165 ) ;
#88 = PERSON_AND_ORGANIZATION_ROLE ( 'classification_officer' ) ;
#89 = CIRCLE ( 'NONE', #50, 2.250000000000000000 ) ;
#90 =( GEOMETRIC_REPRESENTATION_CONTEXT ( 3 ) GLOBAL_UNCERTAINTY_ASSIGNED_CONTEXT ( ( #193 ) ) GLOBAL_UNIT_ASSIGNED_CONTEXT ( ( #142, #16, #120 ) ) REPRESENTATION_CONTEXT ( 'NONE', 'WORKASPACE' ) );
#91 = CALENDAR_DATE ( 2023, 12, 2 ) ;
#92 = DIRECTION ( 'NONE',  ( -0.000000000000000000, -0.000000000000000000, -1.000000000000000000 ) ) ;
#93 = AXIS2_PLACEMENT_3D ( 'NONE', #238, #20, #173 ) ;
#94 = CC_DESIGN_PERSON_AND_ORGANIZATION_ASSIGNMENT ( #111, #85, ( #4 ) ) ;
#95 = LOCAL_TIME ( 13, 32, 35.00000000000000000, #104 ) ;
#96 = EDGE_LOOP ( 'NONE', ( #18, #41, #119, #217 ) ) ;
#97 = PLANE ( 'NONE',  #182 ) ;
#98 = CC_DESIGN_PERSON_AND_ORGANIZATION_ASSIGNMENT ( #73, #205, ( #188 ) ) ;
#99 = EDGE_CURVE ( 'NONE', #38, #40, #151, .T. ) ;
#100 = EDGE_LOOP ( 'NONE', ( #57, #22, #117, #187 ) ) ;
#101 = ADVANCED_FACE ( 'NONE', ( #53 ), #155, .T. ) ;
#102 = DIRECTION ( 'NONE',  ( -0.000000000000000000, -0.000000000000000000, -1.000000000000000000 ) ) ;
#103 = APPROVAL_STATUS ( 'not_yet_approved' ) ;
#104 = COORDINATED_UNIVERSAL_TIME_OFFSET ( 1, 0, .AHEAD. ) ;
#105 = ORIENTED_EDGE ( 'NONE', *, *, #201, .F. ) ;
#106 = VECTOR ( 'NONE', #154, 1000.000000000000000 ) ;
#107 = CC_DESIGN_APPROVAL ( #150, ( #188 ) ) ;
#108 = CARTESIAN_POINT ( 'NONE',  ( 4.000000000000000000, 4.898587196589412829E-16, 3.000000000000000000 ) ) ;
#109 = DIRECTION ( 'NONE',  ( -1.000000000000000000, 0.000000000000000000, 0.000000000000000000 ) ) ;
#110 = CARTESIAN_POINT ( 'NONE',  ( -2.250000000000000000, 0.000000000000000000, 500.0000000000000000 ) ) ;
#111 = PERSON_AND_ORGANIZATION ( #54, #208 ) ;
#112 = CYLINDRICAL_SURFACE ( 'NONE', #75, 2.250000000000000000 ) ;
#113 = EDGE_CURVE ( 'NONE', #36, #144, #35, .T. ) ;
#114 = FACE_OUTER_BOUND ( 'NONE', #61, .T. ) ;
#115 = CARTESIAN_POINT ( 'NONE',  ( 0.000000000000000000, 0.000000000000000000, 0.000000000000000000 ) ) ;
#116 = CIRCLE ( 'NONE', #26, 4.000000000000000000 ) ;
#117 = ORIENTED_EDGE ( 'NONE', *, *, #99, .T. ) ;
#118 = APPROVAL ( #103, 'NEURÈENÝ' ) ;
#119 = ORIENTED_EDGE ( 'NONE', *, *, #215, .T. ) ;
#120 =( NAMED_UNIT ( * ) SI_UNIT ( $, .STERADIAN. ) SOLID_ANGLE_UNIT ( ) );
#121 = EDGE_LOOP ( 'NONE', ( #3, #161 ) ) ;
#122 = FACE_BOUND ( 'NONE', #174, .T. ) ;
#123 = DIRECTION ( 'NONE',  ( 0.000000000000000000, 0.000000000000000000, 1.000000000000000000 ) ) ;
#124 = APPROVAL_ROLE ( '' ) ;
#125 = DIRECTION ( 'NONE',  ( 1.000000000000000000, 0.000000000000000000, -0.000000000000000000 ) ) ;
#126 = ORIENTED_EDGE ( 'NONE', *, *, #76, .F. ) ;
#127 = MANIFOLD_SOLID_BREP ( 'Pøidat vysunutím3', #244 ) ;
#128 = ORIENTED_EDGE ( 'NONE', *, *, #215, .F. ) ;
#129 = CARTESIAN_POINT ( 'NONE',  ( -4.000000000000000000, 0.000000000000000000, 3.000000000000000000 ) ) ;
#130 = FACE_OUTER_BOUND ( 'NONE', #96, .T. ) ;
#131 = CARTESIAN_POINT ( 'NONE',  ( 0.000000000000000000, 0.000000000000000000, 3.000000000000000000 ) ) ;
#132 = CC_DESIGN_SECURITY_CLASSIFICATION ( #77, ( #4 ) ) ;
#133 = FACE_OUTER_BOUND ( 'NONE', #239, .T. ) ;
#134 = DIRECTION ( 'NONE',  ( 0.000000000000000000, 0.000000000000000000, 1.000000000000000000 ) ) ;
#135 = APPROVAL_PERSON_ORGANIZATION ( #148, #171, #48 ) ;
#136 = CARTESIAN_POINT ( 'NONE',  ( 0.000000000000000000, 0.000000000000000000, 3.000000000000000000 ) ) ;
#137 = COORDINATED_UNIVERSAL_TIME_OFFSET ( 1, 0, .AHEAD. ) ;
#138 = DATE_AND_TIME ( #79, #95 ) ;
#139 = CIRCLE ( 'NONE', #168, 2.250000000000000000 ) ;
#140 = VERTEX_POINT ( 'NONE', #210 ) ;
#141 = EDGE_CURVE ( 'NONE', #233, #255, #214, .T. ) ;
#142 =( LENGTH_UNIT ( ) NAMED_UNIT ( * ) SI_UNIT ( .MILLI., .METRE. ) );
#143 = CARTESIAN_POINT ( 'NONE',  ( 0.000000000000000000, 0.000000000000000000, 0.000000000000000000 ) ) ;
#144 = VERTEX_POINT ( 'NONE', #78 ) ;
#145 = APPLICATION_PROTOCOL_DEFINITION ( 'international standard', 'config_control_design', 1994, #226 ) ;
#146 = PERSON_AND_ORGANIZATION_ROLE ( 'creator' ) ;
#147 = CC_DESIGN_PERSON_AND_ORGANIZATION_ASSIGNMENT ( #46, #88, ( #77 ) ) ;
#148 = PERSON_AND_ORGANIZATION ( #54, #208 ) ;
#149 = APPROVAL_STATUS ( 'not_yet_approved' ) ;
#150 = APPROVAL ( #149, 'NEURÈENÝ' ) ;
#151 = CIRCLE ( 'NONE', #175, 4.000000000000000000 ) ;
#152 = CC_DESIGN_APPROVAL ( #171, ( #77 ) ) ;
#153 = CALENDAR_DATE ( 2023, 12, 2 ) ;
#154 = DIRECTION ( 'NONE',  ( -0.000000000000000000, -0.000000000000000000, -1.000000000000000000 ) ) ;
#155 = PLANE ( 'NONE',  #207 ) ;
#156 = APPLICATION_CONTEXT ( 'configuration controlled 3d designs of mechanical parts and assemblies' ) ;
#157 = CC_DESIGN_DATE_AND_TIME_ASSIGNMENT ( #222, #224, ( #77 ) ) ;
#158 = ORIENTED_EDGE ( 'NONE', *, *, #44, .F. ) ;
#159 = DIRECTION ( 'NONE',  ( 0.000000000000000000, 0.000000000000000000, 1.000000000000000000 ) ) ;
#160 = COORDINATED_UNIVERSAL_TIME_OFFSET ( 1, 0, .AHEAD. ) ;
#161 = ORIENTED_EDGE ( 'NONE', *, *, #200, .T. ) ;
#162 = ADVANCED_FACE ( 'NONE', ( #122, #170 ), #97, .T. ) ;
#163 = VECTOR ( 'NONE', #102, 1000.000000000000000 ) ;
#164 = CARTESIAN_POINT ( 'NONE',  ( 0.000000000000000000, 0.000000000000000000, 0.000000000000000000 ) ) ;
#165 = COORDINATED_UNIVERSAL_TIME_OFFSET ( 1, 0, .AHEAD. ) ;
#166 = APPROVAL_PERSON_ORGANIZATION ( #19, #118, #80 ) ;
#167 = DIRECTION ( 'NONE',  ( -1.000000000000000000, 0.000000000000000000, 0.000000000000000000 ) ) ;
#168 = AXIS2_PLACEMENT_3D ( 'NONE', #237, #123, #81 ) ;
#169 = ORIENTED_EDGE ( 'NONE', *, *, #21, .T. ) ;
#170 = FACE_OUTER_BOUND ( 'NONE', #177, .T. ) ;
#171 = APPROVAL ( #181, 'NEURÈENÝ' ) ;
#172 = CARTESIAN_POINT ( 'NONE',  ( -2.250000000000000000, 0.000000000000000000, 500.0000000000000000 ) ) ;
#173 = DIRECTION ( 'NONE',  ( 1.000000000000000000, 0.000000000000000000, 0.000000000000000000 ) ) ;
#174 = EDGE_LOOP ( 'NONE', ( #158, #128 ) ) ;
#175 = AXIS2_PLACEMENT_3D ( 'NONE', #115, #186, #13 ) ;
#176 = ORIENTED_EDGE ( 'NONE', *, *, #227, .T. ) ;
#177 = EDGE_LOOP ( 'NONE', ( #176, #169 ) ) ;
#178 = VECTOR ( 'NONE', #202, 1000.000000000000000 ) ;
#179 = APPROVAL_DATE_TIME ( #52, #171 ) ;
#180 = CARTESIAN_POINT ( 'NONE',  ( -4.000000000000000000, 0.000000000000000000, 0.000000000000000000 ) ) ;
#181 = APPROVAL_STATUS ( 'not_yet_approved' ) ;
#182 = AXIS2_PLACEMENT_3D ( 'NONE', #136, #212, #125 ) ;
#183 = LOCAL_TIME ( 13, 32, 35.00000000000000000, #137 ) ;
#184 = DIRECTION ( 'NONE',  ( -1.000000000000000000, 0.000000000000000000, 0.000000000000000000 ) ) ;
#185 = AXIS2_PLACEMENT_3D ( 'NONE', #31, #92, #167 ) ;
#186 = DIRECTION ( 'NONE',  ( 0.000000000000000000, 0.000000000000000000, 1.000000000000000000 ) ) ;
#187 = ORIENTED_EDGE ( 'NONE', *, *, #32, .F. ) ;
#188 = PRODUCT_DEFINITION ( 'NEZNÁMÝ', '', #4, #66 ) ;
#189 = CARTESIAN_POINT ( 'NONE',  ( 4.000000000000000000, 4.898587196589412829E-16, 3.000000000000000000 ) ) ;
#190 = DATE_TIME_ROLE ( 'creation_date' ) ;
#191 = CARTESIAN_POINT ( 'NONE',  ( 2.250000000000000000, 2.755455298081543792E-16, 500.0000000000000000 ) ) ;
#192 = CARTESIAN_POINT ( 'NONE',  ( 0.000000000000000000, 0.000000000000000000, 500.0000000000000000 ) ) ;
#193 = UNCERTAINTY_MEASURE_WITH_UNIT (LENGTH_MEASURE( 1.000000000000000082E-05 ), #142, 'distance_accuracy_value', 'NONE');
#194 = ORIENTED_EDGE ( 'NONE', *, *, #141, .F. ) ;
#195 = AXIS2_PLACEMENT_3D ( 'NONE', #143, #159, #220 ) ;
#196 = CARTESIAN_POINT ( 'NONE',  ( 0.000000000000000000, 0.000000000000000000, 3.000000000000000000 ) ) ;
#197 = CC_DESIGN_APPROVAL ( #118, ( #4 ) ) ;
#198 = CALENDAR_DATE ( 2023, 12, 2 ) ;
#199 = PLANE ( 'NONE',  #195 ) ;
#200 = EDGE_CURVE ( 'NONE', #233, #36, #221, .T. ) ;
#201 = EDGE_CURVE ( 'NONE', #14, #38, #235, .T. ) ;
#202 = DIRECTION ( 'NONE',  ( -0.000000000000000000, -0.000000000000000000, -1.000000000000000000 ) ) ;
#203 = PRODUCT_DEFINITION_SHAPE ( 'NONE', 'NONE',  #188 ) ;
#204 = CYLINDRICAL_SURFACE ( 'NONE', #67, 4.000000000000000000 ) ;
#205 = PERSON_AND_ORGANIZATION_ROLE ( 'creator' ) ;
#206 = CYLINDRICAL_SURFACE ( 'NONE', #185, 2.250000000000000000 ) ;
#207 = AXIS2_PLACEMENT_3D ( 'NONE', #58, #39, #236 ) ;
#208 = ORGANIZATION ( 'NEURÈENÝ', 'NEURÈENÝ', '' ) ;
#209 = ORIENTED_EDGE ( 'NONE', *, *, #76, .T. ) ;
#210 = CARTESIAN_POINT ( 'NONE',  ( -4.000000000000000000, 0.000000000000000000, 3.000000000000000000 ) ) ;
#211 = CARTESIAN_POINT ( 'NONE',  ( 2.250000000000000000, 2.755455298081543792E-16, 3.000000000000000000 ) ) ;
#212 = DIRECTION ( 'NONE',  ( 0.000000000000000000, 0.000000000000000000, 1.000000000000000000 ) ) ;
#213 = ORIENTED_EDGE ( 'NONE', *, *, #113, .T. ) ;
#214 = LINE ( 'NONE', #191, #43 ) ;
#215 = EDGE_CURVE ( 'NONE', #255, #144, #139, .T. ) ;
#216 = CIRCLE ( 'NONE', #7, 2.250000000000000000 ) ;
#217 = ORIENTED_EDGE ( 'NONE', *, *, #113, .F. ) ;
#218 = ORIENTED_EDGE ( 'NONE', *, *, #99, .F. ) ;
#219 = PERSON_AND_ORGANIZATION ( #54, #208 ) ;
#220 = DIRECTION ( 'NONE',  ( 1.000000000000000000, 0.000000000000000000, -0.000000000000000000 ) ) ;
#221 = CIRCLE ( 'NONE', #240, 2.250000000000000000 ) ;
#222 = DATE_AND_TIME ( #246, #87 ) ;
#223 = MECHANICAL_CONTEXT ( 'NONE', #226, 'mechanical' ) ;
#224 = DATE_TIME_ROLE ( 'classification_date' ) ;
#225 = CARTESIAN_POINT ( 'NONE',  ( 0.000000000000000000, 0.000000000000000000, 3.000000000000000000 ) ) ;
#226 = APPLICATION_CONTEXT ( 'configuration controlled 3d designs of mechanical parts and assemblies' ) ;
#227 = EDGE_CURVE ( 'NONE', #140, #14, #59, .T. ) ;
#228 = APPLICATION_PROTOCOL_DEFINITION ( 'international standard', 'config_control_design', 1994, #156 ) ;
#229 = DIRECTION ( 'NONE',  ( -0.000000000000000000, -0.000000000000000000, -1.000000000000000000 ) ) ;
#230 = DATE_AND_TIME ( #91, #12 ) ;
#231 = PRODUCT ( '22a1', '22a1', '', ( #223 ) ) ;
#232 = DIRECTION ( 'NONE',  ( -1.000000000000000000, 0.000000000000000000, 0.000000000000000000 ) ) ;
#233 = VERTEX_POINT ( 'NONE', #254 ) ;
#234 = DIRECTION ( 'NONE',  ( -0.000000000000000000, -0.000000000000000000, -1.000000000000000000 ) ) ;
#235 = LINE ( 'NONE', #189, #163 ) ;
#236 = DIRECTION ( 'NONE',  ( 1.000000000000000000, 0.000000000000000000, -0.000000000000000000 ) ) ;
#237 = CARTESIAN_POINT ( 'NONE',  ( 0.000000000000000000, 0.000000000000000000, 3.000000000000000000 ) ) ;
#238 = CARTESIAN_POINT ( 'NONE',  ( 0.000000000000000000, 0.000000000000000000, 3.000000000000000000 ) ) ;
#239 = EDGE_LOOP ( 'NONE', ( #105, #252, #60, #209 ) ) ;
#240 = AXIS2_PLACEMENT_3D ( 'NONE', #192, #55, #253 ) ;
#241 = CC_DESIGN_DATE_AND_TIME_ASSIGNMENT ( #230, #190, ( #188 ) ) ;
#242 = EDGE_LOOP ( 'NONE', ( #126, #218 ) ) ;
#243 = DIRECTION ( 'NONE',  ( 0.000000000000000000, 0.000000000000000000, 1.000000000000000000 ) ) ;
#244 = CLOSED_SHELL ( 'NONE', ( #45, #27, #56, #162, #25, #71, #101 ) ) ;
#245 = FACE_OUTER_BOUND ( 'NONE', #100, .T. ) ;
#246 = CALENDAR_DATE ( 2023, 12, 2 ) ;
#247 = APPROVAL_DATE_TIME ( #138, #150 ) ;
#248 = CARTESIAN_POINT ( 'NONE',  ( 0.000000000000000000, 0.000000000000000000, 0.000000000000000000 ) ) ;
#249 = AXIS2_PLACEMENT_3D ( 'NONE', #248, #134, #33 ) ;
#250 = AXIS2_PLACEMENT_3D ( 'NONE', #164, #243, #63 ) ;
#251 = DIRECTION ( 'NONE',  ( 0.000000000000000000, 0.000000000000000000, 1.000000000000000000 ) ) ;
#252 = ORIENTED_EDGE ( 'NONE', *, *, #227, .F. ) ;
#253 = DIRECTION ( 'NONE',  ( 1.000000000000000000, 0.000000000000000000, 0.000000000000000000 ) ) ;
#254 = CARTESIAN_POINT ( 'NONE',  ( 2.250000000000000000, 2.755455298081543792E-16, 500.0000000000000000 ) ) ;
#255 = VERTEX_POINT ( 'NONE', #211 ) ;
ENDSEC;
END-ISO-10303-21;
