ISO-10303-21;
HEADER;
FILE_DESCRIPTION (( 'STEP AP203' ),
    '1' );
FILE_NAME ('d7b9.STEP',
    '2022-07-07T10:40:46',
    ( '' ),
    ( '' ),
    'SwSTEP 2.0',
    'SolidWorks 2019',
    '' );
FILE_SCHEMA (( 'CONFIG_CONTROL_DESIGN' ));
ENDSEC;

DATA;
#1 = CARTESIAN_POINT ( 'NONE',  ( 0.000000000000000000, 0.000000000000000000, 126.2000000000000028 ) ) ;
#2 = CC_DESIGN_DATE_AND_TIME_ASSIGNMENT ( #139, #191, ( #140 ) ) ;
#3 = PERSON_AND_ORGANIZATION_ROLE ( 'classification_officer' ) ;
#4 = PERSON_AND_ORGANIZATION ( #44, #169 ) ;
#5 = DATE_AND_TIME ( #113, #197 ) ;
#6 = DATE_AND_TIME ( #285, #282 ) ;
#7 = EDGE_CURVE ( 'NONE', #40, #296, #47, .T. ) ;
#8 = CIRCLE ( 'NONE', #179, 0.5999999999999999778 ) ;
#9 = VECTOR ( 'NONE', #209, 1000.000000000000000 ) ;
#10 = AXIS2_PLACEMENT_3D ( 'NONE', #83, #46, #275 ) ;
#11 = ORIENTED_EDGE ( 'NONE', *, *, #274, .F. ) ;
#12 = VERTEX_POINT ( 'NONE', #90 ) ;
#13 = APPROVAL_PERSON_ORGANIZATION ( #4, #265, #51 ) ;
#14 = FACE_OUTER_BOUND ( 'NONE', #23, .T. ) ;
#15 = DIRECTION ( 'NONE',  ( 0.000000000000000000, 0.000000000000000000, 1.000000000000000000 ) ) ;
#16 = ORIENTED_EDGE ( 'NONE', *, *, #122, .T. ) ;
#17 = LINE ( 'NONE', #177, #56 ) ;
#18 = DIRECTION ( 'NONE',  ( 1.000000000000000000, 0.000000000000000000, -0.000000000000000000 ) ) ;
#19 = CC_DESIGN_PERSON_AND_ORGANIZATION_ASSIGNMENT ( #261, #115, ( #62 ) ) ;
#20 = DIRECTION ( 'NONE',  ( 1.000000000000000000, 0.000000000000000000, 0.000000000000000000 ) ) ;
#21 = DIRECTION ( 'NONE',  ( 0.000000000000000000, 0.000000000000000000, 1.000000000000000000 ) ) ;
#22 = DIRECTION ( 'NONE',  ( 1.000000000000000000, 0.000000000000000000, 0.000000000000000000 ) ) ;
#23 = EDGE_LOOP ( 'NONE', ( #11, #249, #182, #175 ) ) ;
#24 = PRODUCT_DEFINITION ( 'NEZNÁMÝ', '', #62, #54 ) ;
#25 =( GEOMETRIC_REPRESENTATION_CONTEXT ( 3 ) GLOBAL_UNCERTAINTY_ASSIGNED_CONTEXT ( ( #171 ) ) GLOBAL_UNIT_ASSIGNED_CONTEXT ( ( #283, #165, #162 ) ) REPRESENTATION_CONTEXT ( 'NONE', 'WORKASPACE' ) );
#26 = PERSON_AND_ORGANIZATION ( #44, #169 ) ;
#27 = SHAPE_DEFINITION_REPRESENTATION ( #100, #166 ) ;
#28 = APPLICATION_PROTOCOL_DEFINITION ( 'international standard', 'config_control_design', 1994, #173 ) ;
#29 = EDGE_CURVE ( 'NONE', #144, #66, #219, .T. ) ;
#30 = VECTOR ( 'NONE', #73, 1000.000000000000000 ) ;
#31 = DATE_TIME_ROLE ( 'creation_date' ) ;
#32 = AXIS2_PLACEMENT_3D ( 'NONE', #230, #21, #22 ) ;
#33 = CIRCLE ( 'NONE', #148, 0.5999999999999999778 ) ;
#34 = ADVANCED_FACE ( 'NONE', ( #43 ), #59, .T. ) ;
#35 = EDGE_LOOP ( 'NONE', ( #60, #154, #101, #147 ) ) ;
#36 = ORIENTED_EDGE ( 'NONE', *, *, #106, .T. ) ;
#37 = DIRECTION ( 'NONE',  ( -1.000000000000000000, 0.000000000000000000, 0.000000000000000000 ) ) ;
#38 = DIRECTION ( 'NONE',  ( -1.000000000000000000, 0.000000000000000000, 0.000000000000000000 ) ) ;
#39 = DIRECTION ( 'NONE',  ( -0.000000000000000000, -0.000000000000000000, -1.000000000000000000 ) ) ;
#40 = VERTEX_POINT ( 'NONE', #224 ) ;
#41 = EDGE_CURVE ( 'NONE', #87, #151, #292, .T. ) ;
#42 = CARTESIAN_POINT ( 'NONE',  ( 0.7999999999999999334, 0.000000000000000000, 1.399999999999998579 ) ) ;
#43 = FACE_OUTER_BOUND ( 'NONE', #202, .T. ) ;
#44 = PERSON ( 'NEURÈENÝ', 'NEURÈENÝ', 'NEURÈENÝ', ('NEURÈENÝ'), ('NEURÈENÝ'), ('NEURÈENÝ') ) ;
#45 = DIRECTION ( 'NONE',  ( 0.000000000000000000, 0.000000000000000000, 1.000000000000000000 ) ) ;
#46 = DIRECTION ( 'NONE',  ( 0.000000000000000000, 0.000000000000000000, 1.000000000000000000 ) ) ;
#47 = CIRCLE ( 'NONE', #264, 0.7999999999999999334 ) ;
#48 = PERSON_AND_ORGANIZATION_ROLE ( 'design_supplier' ) ;
#49 = APPLICATION_PROTOCOL_DEFINITION ( 'international standard', 'config_control_design', 1994, #287 ) ;
#50 = SECURITY_CLASSIFICATION_LEVEL ( 'unclassified' ) ;
#51 = APPROVAL_ROLE ( '' ) ;
#52 = COORDINATED_UNIVERSAL_TIME_OFFSET ( 1, 0, .AHEAD. ) ;
#53 = CLOSED_SHELL ( 'NONE', ( #192, #34, #114, #220, #187, #142, #170, #63, #121 ) ) ;
#54 = DESIGN_CONTEXT ( 'detailed design', #287, 'design' ) ;
#55 = EDGE_CURVE ( 'NONE', #185, #295, #164, .T. ) ;
#56 = VECTOR ( 'NONE', #39, 1000.000000000000000 ) ;
#57 = CARTESIAN_POINT ( 'NONE',  ( -1.250000000000000000, 0.000000000000000000, 0.000000000000000000 ) ) ;
#58 = PRODUCT ( 'd7b9', 'd7b9', '', ( #76 ) ) ;
#59 = CYLINDRICAL_SURFACE ( 'NONE', #256, 0.5999999999999999778 ) ;
#60 = ORIENTED_EDGE ( 'NONE', *, *, #106, .F. ) ;
#61 = CARTESIAN_POINT ( 'NONE',  ( -0.5999999999999999778, 0.000000000000000000, 1.399999999999998579 ) ) ;
#62 = PRODUCT_DEFINITION_FORMATION_WITH_SPECIFIED_SOURCE ( 'LIBOVOLNÝ', '', #58, .NOT_KNOWN. ) ;
#63 = ADVANCED_FACE ( 'NONE', ( #103 ), #204, .T. ) ;
#64 = CIRCLE ( 'NONE', #241, 1.250000000000000000 ) ;
#65 = ORIENTED_EDGE ( 'NONE', *, *, #236, .F. ) ;
#66 = VERTEX_POINT ( 'NONE', #105 ) ;
#67 = DIRECTION ( 'NONE',  ( -1.000000000000000000, 0.000000000000000000, 0.000000000000000000 ) ) ;
#68 = ORIENTED_EDGE ( 'NONE', *, *, #77, .F. ) ;
#69 = FACE_OUTER_BOUND ( 'NONE', #248, .T. ) ;
#70 = EDGE_LOOP ( 'NONE', ( #243, #36 ) ) ;
#71 = EDGE_CURVE ( 'NONE', #185, #144, #206, .T. ) ;
#72 = CC_DESIGN_SECURITY_CLASSIFICATION ( #140, ( #62 ) ) ;
#73 = DIRECTION ( 'NONE',  ( -0.000000000000000000, -0.000000000000000000, -1.000000000000000000 ) ) ;
#74 = DIRECTION ( 'NONE',  ( 1.000000000000000000, 0.000000000000000000, 0.000000000000000000 ) ) ;
#75 = DIRECTION ( 'NONE',  ( 0.000000000000000000, 0.000000000000000000, 1.000000000000000000 ) ) ;
#76 = MECHANICAL_CONTEXT ( 'NONE', #173, 'mechanical' ) ;
#77 = EDGE_CURVE ( 'NONE', #151, #87, #99, .T. ) ;
#78 = AXIS2_PLACEMENT_3D ( 'NONE', #133, #186, #190 ) ;
#79 = DIRECTION ( 'NONE',  ( 0.000000000000000000, 0.000000000000000000, 1.000000000000000000 ) ) ;
#80 = DIRECTION ( 'NONE',  ( 0.000000000000000000, 0.000000000000000000, 1.000000000000000000 ) ) ;
#81 = EDGE_LOOP ( 'NONE', ( #123, #176 ) ) ;
#82 = DIRECTION ( 'NONE',  ( 0.000000000000000000, 0.000000000000000000, 1.000000000000000000 ) ) ;
#83 = CARTESIAN_POINT ( 'NONE',  ( 0.000000000000000000, 0.000000000000000000, 1.399999999999998579 ) ) ;
#84 = ORIENTED_EDGE ( 'NONE', *, *, #290, .F. ) ;
#85 = DIRECTION ( 'NONE',  ( 1.000000000000000000, 0.000000000000000000, 0.000000000000000000 ) ) ;
#86 = AXIS2_PLACEMENT_3D ( 'NONE', #193, #97, #210 ) ;
#87 = VERTEX_POINT ( 'NONE', #131 ) ;
#88 = ORIENTED_EDGE ( 'NONE', *, *, #163, .F. ) ;
#89 = CARTESIAN_POINT ( 'NONE',  ( 0.000000000000000000, 0.000000000000000000, 1.199999999999999956 ) ) ;
#90 = CARTESIAN_POINT ( 'NONE',  ( -0.5999999999999999778, 0.000000000000000000, 126.2000000000000028 ) ) ;
#91 = CARTESIAN_POINT ( 'NONE',  ( -1.250000000000000000, 0.000000000000000000, 1.199999999999999956 ) ) ;
#92 = CIRCLE ( 'NONE', #281, 0.2000000000000000944 ) ;
#93 = CALENDAR_DATE ( 2022, 7, 7 ) ;
#94 = CARTESIAN_POINT ( 'NONE',  ( -0.5999999999999999778, 0.000000000000000000, 126.2000000000000028 ) ) ;
#95 = APPROVAL_DATE_TIME ( #135, #278 ) ;
#96 = CARTESIAN_POINT ( 'NONE',  ( 0.000000000000000000, 0.000000000000000000, 0.000000000000000000 ) ) ;
#97 = DIRECTION ( 'NONE',  ( 1.224646799147353207E-16, 1.000000000000000000, -0.000000000000000000 ) ) ;
#98 = PERSON_AND_ORGANIZATION ( #44, #169 ) ;
#99 = CIRCLE ( 'NONE', #32, 0.5999999999999999778 ) ;
#100 = PRODUCT_DEFINITION_SHAPE ( 'NONE', 'NONE',  #24 ) ;
#101 = ORIENTED_EDGE ( 'NONE', *, *, #163, .T. ) ;
#102 = DIRECTION ( 'NONE',  ( 0.000000000000000000, 0.000000000000000000, 1.000000000000000000 ) ) ;
#103 = FACE_OUTER_BOUND ( 'NONE', #81, .T. ) ;
#104 = CARTESIAN_POINT ( 'NONE',  ( 0.000000000000000000, 0.000000000000000000, 0.000000000000000000 ) ) ;
#105 = CARTESIAN_POINT ( 'NONE',  ( 1.250000000000000000, 1.530808498934191571E-16, 0.000000000000000000 ) ) ;
#106 = EDGE_CURVE ( 'NONE', #295, #185, #143, .T. ) ;
#107 = DIRECTION ( 'NONE',  ( 1.000000000000000000, 0.000000000000000000, 0.000000000000000000 ) ) ;
#108 = AXIS2_PLACEMENT_3D ( 'NONE', #156, #15, #134 ) ;
#109 = DIRECTION ( 'NONE',  ( -0.000000000000000000, -0.000000000000000000, -1.000000000000000000 ) ) ;
#110 = LINE ( 'NONE', #297, #9 ) ;
#111 = DIRECTION ( 'NONE',  ( 0.000000000000000000, 0.000000000000000000, 1.000000000000000000 ) ) ;
#112 = AXIS2_PLACEMENT_3D ( 'NONE', #232, #203, #67 ) ;
#113 = CALENDAR_DATE ( 2022, 7, 7 ) ;
#114 = ADVANCED_FACE ( 'NONE', ( #229 ), #276, .T. ) ;
#115 = PERSON_AND_ORGANIZATION_ROLE ( 'creator' ) ;
#116 = CC_DESIGN_APPROVAL ( #278, ( #62 ) ) ;
#117 = AXIS2_PLACEMENT_3D ( 'NONE', #304, #80, #267 ) ;
#118 = AXIS2_PLACEMENT_3D ( 'NONE', #96, #75, #195 ) ;
#119 = PERSON_AND_ORGANIZATION ( #44, #169 ) ;
#120 = APPROVAL_ROLE ( '' ) ;
#121 = ADVANCED_FACE ( 'NONE', ( #14 ), #272, .F. ) ;
#122 = EDGE_CURVE ( 'NONE', #183, #87, #110, .T. ) ;
#123 = ORIENTED_EDGE ( 'NONE', *, *, #290, .T. ) ;
#124 = ORIENTED_EDGE ( 'NONE', *, *, #236, .T. ) ;
#125 = FACE_OUTER_BOUND ( 'NONE', #233, .T. ) ;
#126 = CC_DESIGN_APPROVAL ( #265, ( #24 ) ) ;
#127 = DIRECTION ( 'NONE',  ( -0.000000000000000000, -0.000000000000000000, -1.000000000000000000 ) ) ;
#128 = DIRECTION ( 'NONE',  ( 1.000000000000000000, 0.000000000000000000, 0.000000000000000000 ) ) ;
#129 = CARTESIAN_POINT ( 'NONE',  ( 0.000000000000000000, 0.000000000000000000, 126.2000000000000028 ) ) ;
#130 = ORIENTED_EDGE ( 'NONE', *, *, #122, .F. ) ;
#131 = CARTESIAN_POINT ( 'NONE',  ( 0.5999999999999999778, 7.347880794884117764E-17, 1.399999999999998579 ) ) ;
#132 = DIRECTION ( 'NONE',  ( -0.000000000000000000, -0.000000000000000000, -1.000000000000000000 ) ) ;
#133 = CARTESIAN_POINT ( 'NONE',  ( 0.000000000000000000, 0.000000000000000000, 1.199999999999999956 ) ) ;
#134 = DIRECTION ( 'NONE',  ( 1.000000000000000000, 0.000000000000000000, 0.000000000000000000 ) ) ;
#135 = DATE_AND_TIME ( #237, #280 ) ;
#136 = DIRECTION ( 'NONE',  ( 1.000000000000000000, 0.000000000000000000, 0.000000000000000000 ) ) ;
#137 = LINE ( 'NONE', #94, #30 ) ;
#138 = COORDINATED_UNIVERSAL_TIME_OFFSET ( 1, 0, .AHEAD. ) ;
#139 = DATE_AND_TIME ( #235, #158 ) ;
#140 = SECURITY_CLASSIFICATION ( '', '', #50 ) ;
#141 = VECTOR ( 'NONE', #132, 1000.000000000000000 ) ;
#142 = ADVANCED_FACE ( 'NONE', ( #125 ), #153, .F. ) ;
#143 = CIRCLE ( 'NONE', #222, 1.250000000000000000 ) ;
#144 = VERTEX_POINT ( 'NONE', #57 ) ;
#145 = CARTESIAN_POINT ( 'NONE',  ( 0.000000000000000000, 0.000000000000000000, 1.199999999999999956 ) ) ;
#146 = CARTESIAN_POINT ( 'NONE',  ( 0.000000000000000000, 0.000000000000000000, 126.2000000000000028 ) ) ;
#147 = ORIENTED_EDGE ( 'NONE', *, *, #71, .F. ) ;
#148 = AXIS2_PLACEMENT_3D ( 'NONE', #284, #111, #74 ) ;
#149 = TOROIDAL_SURFACE ( 'NONE', #198, 0.7999999999999999334, 0.2000000000000000111 ) ;
#150 = DIRECTION ( 'NONE',  ( 0.000000000000000000, 0.000000000000000000, -1.000000000000000000 ) ) ;
#151 = VERTEX_POINT ( 'NONE', #61 ) ;
#152 = ORIENTED_EDGE ( 'NONE', *, *, #274, .T. ) ;
#153 = PLANE ( 'NONE',  #199 ) ;
#154 = ORIENTED_EDGE ( 'NONE', *, *, #160, .T. ) ;
#155 = CYLINDRICAL_SURFACE ( 'NONE', #246, 0.5999999999999999778 ) ;
#156 = CARTESIAN_POINT ( 'NONE',  ( 0.000000000000000000, 0.000000000000000000, 1.199999999999999956 ) ) ;
#157 = AXIS2_PLACEMENT_3D ( 'NONE', #129, #227, #18 ) ;
#158 = LOCAL_TIME ( 12, 40, 46.00000000000000000, #238 ) ;
#159 = DATE_AND_TIME ( #93, #293 ) ;
#160 = EDGE_CURVE ( 'NONE', #295, #66, #17, .T. ) ;
#161 = COORDINATED_UNIVERSAL_TIME_OFFSET ( 1, 0, .AHEAD. ) ;
#162 =( NAMED_UNIT ( * ) SI_UNIT ( $, .STERADIAN. ) SOLID_ANGLE_UNIT ( ) );
#163 = EDGE_CURVE ( 'NONE', #66, #144, #64, .T. ) ;
#164 = CIRCLE ( 'NONE', #108, 1.250000000000000000 ) ;
#165 =( NAMED_UNIT ( * ) PLANE_ANGLE_UNIT ( ) SI_UNIT ( $, .RADIAN. ) );
#166 = ADVANCED_BREP_SHAPE_REPRESENTATION ( 'd7b9', ( #188, #118 ), #25 ) ;
#167 = PERSON_AND_ORGANIZATION ( #44, #169 ) ;
#168 = APPROVAL_STATUS ( 'not_yet_approved' ) ;
#169 = ORGANIZATION ( 'NEURÈENÝ', 'NEURÈENÝ', '' ) ;
#170 = ADVANCED_FACE ( 'NONE', ( #294 ), #155, .T. ) ;
#171 = UNCERTAINTY_MEASURE_WITH_UNIT (LENGTH_MEASURE( 1.000000000000000082E-05 ), #283, 'distance_accuracy_value', 'NONE');
#172 = ORIENTED_EDGE ( 'NONE', *, *, #71, .T. ) ;
#173 = APPLICATION_CONTEXT ( 'configuration controlled 3d designs of mechanical parts and assemblies' ) ;
#174 = FACE_OUTER_BOUND ( 'NONE', #298, .T. ) ;
#175 = ORIENTED_EDGE ( 'NONE', *, *, #260, .F. ) ;
#176 = ORIENTED_EDGE ( 'NONE', *, *, #231, .T. ) ;
#177 = CARTESIAN_POINT ( 'NONE',  ( 1.250000000000000000, 1.530808498934191571E-16, 1.199999999999999956 ) ) ;
#178 = ORIENTED_EDGE ( 'NONE', *, *, #160, .F. ) ;
#179 = AXIS2_PLACEMENT_3D ( 'NONE', #1, #213, #189 ) ;
#180 = CARTESIAN_POINT ( 'NONE',  ( 0.5999999999999999778, 7.347880794884117764E-17, 126.2000000000000028 ) ) ;
#181 = EDGE_CURVE ( 'NONE', #87, #40, #92, .T. ) ;
#182 = ORIENTED_EDGE ( 'NONE', *, *, #181, .T. ) ;
#183 = VERTEX_POINT ( 'NONE', #180 ) ;
#184 = DIRECTION ( 'NONE',  ( 1.000000000000000000, 0.000000000000000000, -0.000000000000000000 ) ) ;
#185 = VERTEX_POINT ( 'NONE', #91 ) ;
#186 = DIRECTION ( 'NONE',  ( -0.000000000000000000, -0.000000000000000000, -1.000000000000000000 ) ) ;
#187 = ADVANCED_FACE ( 'NONE', ( #303, #247 ), #226, .T. ) ;
#188 = MANIFOLD_SOLID_BREP ( 'Zaoblit1', #53 ) ;
#189 = DIRECTION ( 'NONE',  ( 1.000000000000000000, 0.000000000000000000, 0.000000000000000000 ) ) ;
#190 = DIRECTION ( 'NONE',  ( -1.000000000000000000, 0.000000000000000000, 0.000000000000000000 ) ) ;
#191 = DATE_TIME_ROLE ( 'classification_date' ) ;
#192 = ADVANCED_FACE ( 'NONE', ( #174 ), #149, .F. ) ;
#193 = CARTESIAN_POINT ( 'NONE',  ( -0.7999999999999999334, 9.797174393178824918E-17, 1.399999999999998579 ) ) ;
#194 = AXIS2_PLACEMENT_3D ( 'NONE', #273, #102, #20 ) ;
#195 = DIRECTION ( 'NONE',  ( 1.000000000000000000, 0.000000000000000000, 0.000000000000000000 ) ) ;
#196 = APPROVAL_DATE_TIME ( #6, #214 ) ;
#197 = LOCAL_TIME ( 12, 40, 46.00000000000000000, #161 ) ;
#198 = AXIS2_PLACEMENT_3D ( 'NONE', #300, #45, #85 ) ;
#199 = AXIS2_PLACEMENT_3D ( 'NONE', #305, #82, #266 ) ;
#200 = APPROVAL_PERSON_ORGANIZATION ( #119, #214, #216 ) ;
#201 = ORIENTED_EDGE ( 'NONE', *, *, #231, .F. ) ;
#202 = EDGE_LOOP ( 'NONE', ( #201, #16, #251, #65 ) ) ;
#203 = DIRECTION ( 'NONE',  ( -0.000000000000000000, -0.000000000000000000, -1.000000000000000000 ) ) ;
#204 = PLANE ( 'NONE',  #157 ) ;
#205 = ORIENTED_EDGE ( 'NONE', *, *, #55, .F. ) ;
#206 = LINE ( 'NONE', #301, #141 ) ;
#207 = DIRECTION ( 'NONE',  ( 0.000000000000000000, -1.000000000000000000, 0.000000000000000000 ) ) ;
#208 = DIRECTION ( 'NONE',  ( 1.000000000000000000, 0.000000000000000000, 0.000000000000000000 ) ) ;
#209 = DIRECTION ( 'NONE',  ( -0.000000000000000000, -0.000000000000000000, -1.000000000000000000 ) ) ;
#210 = DIRECTION ( 'NONE',  ( -1.000000000000000000, 1.224646799147352714E-16, 0.000000000000000000 ) ) ;
#211 = CARTESIAN_POINT ( 'NONE',  ( 1.250000000000000000, 1.530808498934191571E-16, 1.199999999999999956 ) ) ;
#212 = PERSON_AND_ORGANIZATION ( #44, #169 ) ;
#213 = DIRECTION ( 'NONE',  ( 0.000000000000000000, 0.000000000000000000, 1.000000000000000000 ) ) ;
#214 = APPROVAL ( #215, 'NEURÈENÝ' ) ;
#215 = APPROVAL_STATUS ( 'not_yet_approved' ) ;
#216 = APPROVAL_ROLE ( '' ) ;
#217 = COORDINATED_UNIVERSAL_TIME_OFFSET ( 1, 0, .AHEAD. ) ;
#218 = CC_DESIGN_PERSON_AND_ORGANIZATION_ASSIGNMENT ( #98, #48, ( #62 ) ) ;
#219 = CIRCLE ( 'NONE', #117, 1.250000000000000000 ) ;
#220 = ADVANCED_FACE ( 'NONE', ( #69 ), #223, .T. ) ;
#221 = CARTESIAN_POINT ( 'NONE',  ( 0.000000000000000000, 0.000000000000000000, 1.199999999999999956 ) ) ;
#222 = AXIS2_PLACEMENT_3D ( 'NONE', #145, #250, #107 ) ;
#223 = CYLINDRICAL_SURFACE ( 'NONE', #78, 1.250000000000000000 ) ;
#224 = CARTESIAN_POINT ( 'NONE',  ( 0.7999999999999999334, 0.000000000000000000, 1.199999999999999289 ) ) ;
#225 = EDGE_LOOP ( 'NONE', ( #277, #252 ) ) ;
#226 = PLANE ( 'NONE',  #289 ) ;
#227 = DIRECTION ( 'NONE',  ( 0.000000000000000000, 0.000000000000000000, 1.000000000000000000 ) ) ;
#228 = ORIENTED_EDGE ( 'NONE', *, *, #7, .F. ) ;
#229 = FACE_OUTER_BOUND ( 'NONE', #35, .T. ) ;
#230 = CARTESIAN_POINT ( 'NONE',  ( 0.000000000000000000, 0.000000000000000000, 1.399999999999998579 ) ) ;
#231 = EDGE_CURVE ( 'NONE', #183, #12, #8, .T. ) ;
#232 = CARTESIAN_POINT ( 'NONE',  ( 0.000000000000000000, 0.000000000000000000, 1.199999999999999956 ) ) ;
#233 = EDGE_LOOP ( 'NONE', ( #270, #88 ) ) ;
#234 = PERSON_AND_ORGANIZATION_ROLE ( 'creator' ) ;
#235 = CALENDAR_DATE ( 2022, 7, 7 ) ;
#236 = EDGE_CURVE ( 'NONE', #12, #151, #137, .T. ) ;
#237 = CALENDAR_DATE ( 2022, 7, 7 ) ;
#238 = COORDINATED_UNIVERSAL_TIME_OFFSET ( 1, 0, .AHEAD. ) ;
#239 = APPROVAL_PERSON_ORGANIZATION ( #258, #278, #120 ) ;
#240 = CC_DESIGN_PERSON_AND_ORGANIZATION_ASSIGNMENT ( #167, #257, ( #58 ) ) ;
#241 = AXIS2_PLACEMENT_3D ( 'NONE', #104, #279, #128 ) ;
#242 = PRODUCT_RELATED_PRODUCT_CATEGORY ( 'detail', '', ( #58 ) ) ;
#243 = ORIENTED_EDGE ( 'NONE', *, *, #55, .T. ) ;
#244 = CARTESIAN_POINT ( 'NONE',  ( 0.000000000000000000, 0.000000000000000000, 126.2000000000000028 ) ) ;
#245 = ORIENTED_EDGE ( 'NONE', *, *, #181, .F. ) ;
#246 = AXIS2_PLACEMENT_3D ( 'NONE', #244, #269, #37 ) ;
#247 = FACE_OUTER_BOUND ( 'NONE', #70, .T. ) ;
#248 = EDGE_LOOP ( 'NONE', ( #178, #205, #172, #271 ) ) ;
#249 = ORIENTED_EDGE ( 'NONE', *, *, #41, .F. ) ;
#250 = DIRECTION ( 'NONE',  ( 0.000000000000000000, 0.000000000000000000, 1.000000000000000000 ) ) ;
#251 = ORIENTED_EDGE ( 'NONE', *, *, #41, .T. ) ;
#252 = ORIENTED_EDGE ( 'NONE', *, *, #260, .T. ) ;
#253 = CIRCLE ( 'NONE', #288, 0.7999999999999999334 ) ;
#254 = APPROVAL_DATE_TIME ( #159, #265 ) ;
#255 = DIRECTION ( 'NONE',  ( -0.000000000000000000, -0.000000000000000000, -1.000000000000000000 ) ) ;
#256 = AXIS2_PLACEMENT_3D ( 'NONE', #146, #127, #38 ) ;
#257 = PERSON_AND_ORGANIZATION_ROLE ( 'design_owner' ) ;
#258 = PERSON_AND_ORGANIZATION ( #44, #169 ) ;
#259 = APPROVAL_STATUS ( 'not_yet_approved' ) ;
#260 = EDGE_CURVE ( 'NONE', #296, #40, #253, .T. ) ;
#261 = PERSON_AND_ORGANIZATION ( #44, #169 ) ;
#262 = CIRCLE ( 'NONE', #86, 0.2000000000000000944 ) ;
#263 = CC_DESIGN_PERSON_AND_ORGANIZATION_ASSIGNMENT ( #212, #3, ( #140 ) ) ;
#264 = AXIS2_PLACEMENT_3D ( 'NONE', #221, #109, #208 ) ;
#265 = APPROVAL ( #259, 'NEURÈENÝ' ) ;
#266 = DIRECTION ( 'NONE',  ( 1.000000000000000000, 0.000000000000000000, -0.000000000000000000 ) ) ;
#267 = DIRECTION ( 'NONE',  ( 1.000000000000000000, 0.000000000000000000, 0.000000000000000000 ) ) ;
#268 = CC_DESIGN_PERSON_AND_ORGANIZATION_ASSIGNMENT ( #26, #234, ( #24 ) ) ;
#269 = DIRECTION ( 'NONE',  ( -0.000000000000000000, -0.000000000000000000, -1.000000000000000000 ) ) ;
#270 = ORIENTED_EDGE ( 'NONE', *, *, #29, .F. ) ;
#271 = ORIENTED_EDGE ( 'NONE', *, *, #29, .T. ) ;
#272 = TOROIDAL_SURFACE ( 'NONE', #194, 0.7999999999999999334, 0.2000000000000000111 ) ;
#273 = CARTESIAN_POINT ( 'NONE',  ( 0.000000000000000000, 0.000000000000000000, 1.399999999999998579 ) ) ;
#274 = EDGE_CURVE ( 'NONE', #151, #296, #262, .T. ) ;
#275 = DIRECTION ( 'NONE',  ( 1.000000000000000000, 0.000000000000000000, 0.000000000000000000 ) ) ;
#276 = CYLINDRICAL_SURFACE ( 'NONE', #112, 1.250000000000000000 ) ;
#277 = ORIENTED_EDGE ( 'NONE', *, *, #7, .T. ) ;
#278 = APPROVAL ( #168, 'NEURÈENÝ' ) ;
#279 = DIRECTION ( 'NONE',  ( 0.000000000000000000, 0.000000000000000000, 1.000000000000000000 ) ) ;
#280 = LOCAL_TIME ( 12, 40, 46.00000000000000000, #52 ) ;
#281 = AXIS2_PLACEMENT_3D ( 'NONE', #42, #207, #150 ) ;
#282 = LOCAL_TIME ( 12, 40, 46.00000000000000000, #217 ) ;
#283 =( LENGTH_UNIT ( ) NAMED_UNIT ( * ) SI_UNIT ( .MILLI., .METRE. ) );
#284 = CARTESIAN_POINT ( 'NONE',  ( 0.000000000000000000, 0.000000000000000000, 126.2000000000000028 ) ) ;
#285 = CALENDAR_DATE ( 2022, 7, 7 ) ;
#286 = CARTESIAN_POINT ( 'NONE',  ( -0.7999999999999999334, 9.797174393178824918E-17, 1.199999999999999289 ) ) ;
#287 = APPLICATION_CONTEXT ( 'configuration controlled 3d designs of mechanical parts and assemblies' ) ;
#288 = AXIS2_PLACEMENT_3D ( 'NONE', #306, #255, #136 ) ;
#289 = AXIS2_PLACEMENT_3D ( 'NONE', #89, #79, #184 ) ;
#290 = EDGE_CURVE ( 'NONE', #12, #183, #33, .T. ) ;
#291 = CC_DESIGN_DATE_AND_TIME_ASSIGNMENT ( #5, #31, ( #24 ) ) ;
#292 = CIRCLE ( 'NONE', #10, 0.5999999999999999778 ) ;
#293 = LOCAL_TIME ( 12, 40, 46.00000000000000000, #138 ) ;
#294 = FACE_OUTER_BOUND ( 'NONE', #302, .T. ) ;
#295 = VERTEX_POINT ( 'NONE', #211 ) ;
#296 = VERTEX_POINT ( 'NONE', #286 ) ;
#297 = CARTESIAN_POINT ( 'NONE',  ( 0.5999999999999999778, 7.347880794884117764E-17, 126.2000000000000028 ) ) ;
#298 = EDGE_LOOP ( 'NONE', ( #68, #152, #228, #245 ) ) ;
#299 = ORIENTED_EDGE ( 'NONE', *, *, #77, .T. ) ;
#300 = CARTESIAN_POINT ( 'NONE',  ( 0.000000000000000000, 0.000000000000000000, 1.399999999999998579 ) ) ;
#301 = CARTESIAN_POINT ( 'NONE',  ( -1.250000000000000000, 0.000000000000000000, 1.199999999999999956 ) ) ;
#302 = EDGE_LOOP ( 'NONE', ( #130, #84, #124, #299 ) ) ;
#303 = FACE_BOUND ( 'NONE', #225, .T. ) ;
#304 = CARTESIAN_POINT ( 'NONE',  ( 0.000000000000000000, 0.000000000000000000, 0.000000000000000000 ) ) ;
#305 = CARTESIAN_POINT ( 'NONE',  ( 0.000000000000000000, 0.000000000000000000, 0.000000000000000000 ) ) ;
#306 = CARTESIAN_POINT ( 'NONE',  ( 0.000000000000000000, 0.000000000000000000, 1.199999999999999956 ) ) ;
#307 = CC_DESIGN_APPROVAL ( #214, ( #140 ) ) ;
ENDSEC;
END-ISO-10303-21;
