ISO-10303-21;
HEADER;
FILE_DESCRIPTION (( 'STEP AP203' ),
    '1' );
FILE_NAME ('8a18.STEP',
    '2022-07-07T09:38:29',
    ( '' ),
    ( '' ),
    'SwSTEP 2.0',
    'SolidWorks 2019',
    '' );
FILE_SCHEMA (( 'CONFIG_CONTROL_DESIGN' ));
ENDSEC;

DATA;
#1 = CC_DESIGN_SECURITY_CLASSIFICATION ( #282, ( #291 ) ) ;
#2 = CARTESIAN_POINT ( 'NONE',  ( -8.000000000000000000, 0.000000000000000000, 322.0000000000000000 ) ) ;
#3 = CC_DESIGN_PERSON_AND_ORGANIZATION_ASSIGNMENT ( #189, #209, ( #291 ) ) ;
#4 = CC_DESIGN_APPROVAL ( #195, ( #291 ) ) ;
#5 = CARTESIAN_POINT ( 'NONE',  ( 0.000000000000000000, 0.000000000000000000, 0.000000000000000000 ) ) ;
#6 = ADVANCED_FACE ( 'NONE', ( #303 ), #99, .F. ) ;
#7 = DIRECTION ( 'NONE',  ( 0.000000000000000000, 0.000000000000000000, 1.000000000000000000 ) ) ;
#8 = COORDINATED_UNIVERSAL_TIME_OFFSET ( 1, 0, .AHEAD. ) ;
#9 = PERSON_AND_ORGANIZATION_ROLE ( 'creator' ) ;
#10 = APPROVAL_STATUS ( 'not_yet_approved' ) ;
#11 = ORIENTED_EDGE ( 'NONE', *, *, #90, .F. ) ;
#12 = PERSON_AND_ORGANIZATION ( #148, #130 ) ;
#13 = ORIENTED_EDGE ( 'NONE', *, *, #219, .T. ) ;
#14 = APPROVAL_PERSON_ORGANIZATION ( #35, #104, #54 ) ;
#15 = ORIENTED_EDGE ( 'NONE', *, *, #175, .T. ) ;
#16 = EDGE_CURVE ( 'NONE', #190, #144, #171, .T. ) ;
#17 = CARTESIAN_POINT ( 'NONE',  ( 11.00000000000000000, 1.347111479062088405E-15, 0.000000000000000000 ) ) ;
#18 = CARTESIAN_POINT ( 'NONE',  ( 0.000000000000000000, 0.000000000000000000, 7.199999999999984190 ) ) ;
#19 = EDGE_CURVE ( 'NONE', #144, #265, #290, .T. ) ;
#20 = CYLINDRICAL_SURFACE ( 'NONE', #45, 11.00000000000000000 ) ;
#21 = PRODUCT_DEFINITION_SHAPE ( 'NONE', 'NONE',  #214 ) ;
#22 = DIRECTION ( 'NONE',  ( -0.000000000000000000, -0.000000000000000000, -1.000000000000000000 ) ) ;
#23 = DIRECTION ( 'NONE',  ( 1.000000000000000000, 0.000000000000000000, 0.000000000000000000 ) ) ;
#24 = AXIS2_PLACEMENT_3D ( 'NONE', #70, #39, #37 ) ;
#25 = CARTESIAN_POINT ( 'NONE',  ( 11.00000000000000000, 1.347111479062088405E-15, 7.000000000000000000 ) ) ;
#26 = EDGE_CURVE ( 'NONE', #265, #143, #167, .T. ) ;
#27 = DIRECTION ( 'NONE',  ( 0.000000000000000000, 0.000000000000000000, 1.000000000000000000 ) ) ;
#28 = DIRECTION ( 'NONE',  ( 1.000000000000000000, 0.000000000000000000, 0.000000000000000000 ) ) ;
#29 = DATE_TIME_ROLE ( 'creation_date' ) ;
#30 = ORIENTED_EDGE ( 'NONE', *, *, #191, .F. ) ;
#31 = AXIS2_PLACEMENT_3D ( 'NONE', #18, #38, #252 ) ;
#32 = DATE_AND_TIME ( #164, #277 ) ;
#33 = AXIS2_PLACEMENT_3D ( 'NONE', #255, #88, #232 ) ;
#34 = ORIENTED_EDGE ( 'NONE', *, *, #191, .T. ) ;
#35 = PERSON_AND_ORGANIZATION ( #148, #130 ) ;
#36 = ADVANCED_FACE ( 'NONE', ( #279 ), #172, .T. ) ;
#37 = DIRECTION ( 'NONE',  ( 1.000000000000000000, 0.000000000000000000, -0.000000000000000000 ) ) ;
#38 = DIRECTION ( 'NONE',  ( 0.000000000000000000, 0.000000000000000000, 1.000000000000000000 ) ) ;
#39 = DIRECTION ( 'NONE',  ( 0.000000000000000000, 0.000000000000000000, 1.000000000000000000 ) ) ;
#40 = CIRCLE ( 'NONE', #124, 8.000000000000000000 ) ;
#41 = DIRECTION ( 'NONE',  ( 0.000000000000000000, 0.000000000000000000, 1.000000000000000000 ) ) ;
#42 = CARTESIAN_POINT ( 'NONE',  ( 0.000000000000000000, 0.000000000000000000, 7.000000000000000000 ) ) ;
#43 = CARTESIAN_POINT ( 'NONE',  ( 8.000000000000000000, 9.797174393178825657E-16, 322.0000000000000000 ) ) ;
#44 = ADVANCED_FACE ( 'NONE', ( #233 ), #20, .T. ) ;
#45 = AXIS2_PLACEMENT_3D ( 'NONE', #42, #125, #196 ) ;
#46 = AXIS2_PLACEMENT_3D ( 'NONE', #128, #223, #49 ) ;
#47 = DIRECTION ( 'NONE',  ( -0.000000000000000000, -0.000000000000000000, -1.000000000000000000 ) ) ;
#48 = EDGE_CURVE ( 'NONE', #143, #278, #228, .T. ) ;
#49 = DIRECTION ( 'NONE',  ( -1.000000000000000000, 0.000000000000000000, 0.000000000000000000 ) ) ;
#50 = DIRECTION ( 'NONE',  ( -0.000000000000000000, -0.000000000000000000, -1.000000000000000000 ) ) ;
#51 = CIRCLE ( 'NONE', #76, 11.00000000000000000 ) ;
#52 = DATE_AND_TIME ( #246, #151 ) ;
#53 = ORIENTED_EDGE ( 'NONE', *, *, #48, .F. ) ;
#54 = APPROVAL_ROLE ( '' ) ;
#55 = ADVANCED_FACE ( 'NONE', ( #92 ), #146, .T. ) ;
#56 = VERTEX_POINT ( 'NONE', #152 ) ;
#57 = DATE_AND_TIME ( #184, #198 ) ;
#58 = EDGE_LOOP ( 'NONE', ( #140, #161, #53, #247 ) ) ;
#59 = APPROVAL_DATE_TIME ( #242, #239 ) ;
#60 = ORIENTED_EDGE ( 'NONE', *, *, #264, .F. ) ;
#61 = CC_DESIGN_PERSON_AND_ORGANIZATION_ASSIGNMENT ( #139, #205, ( #66 ) ) ;
#62 = APPROVAL_STATUS ( 'not_yet_approved' ) ;
#63 = DIRECTION ( 'NONE',  ( 0.000000000000000000, 0.000000000000000000, 1.000000000000000000 ) ) ;
#64 = DIRECTION ( 'NONE',  ( 1.000000000000000000, 0.000000000000000000, 0.000000000000000000 ) ) ;
#65 = EDGE_CURVE ( 'NONE', #56, #137, #226, .T. ) ;
#66 = PRODUCT ( '8a18', '8a18', '', ( #186 ) ) ;
#67 = ORIENTED_EDGE ( 'NONE', *, *, #221, .F. ) ;
#68 = CARTESIAN_POINT ( 'NONE',  ( 0.000000000000000000, 0.000000000000000000, 322.0000000000000000 ) ) ;
#69 =( GEOMETRIC_REPRESENTATION_CONTEXT ( 3 ) GLOBAL_UNCERTAINTY_ASSIGNED_CONTEXT ( ( #295 ) ) GLOBAL_UNIT_ASSIGNED_CONTEXT ( ( #258, #285, #155 ) ) REPRESENTATION_CONTEXT ( 'NONE', 'WORKASPACE' ) );
#70 = CARTESIAN_POINT ( 'NONE',  ( 0.000000000000000000, 0.000000000000000000, 322.0000000000000000 ) ) ;
#71 = CARTESIAN_POINT ( 'NONE',  ( 0.000000000000000000, 0.000000000000000000, 0.000000000000000000 ) ) ;
#72 = DIRECTION ( 'NONE',  ( 0.000000000000000000, 0.000000000000000000, 1.000000000000000000 ) ) ;
#73 = FACE_OUTER_BOUND ( 'NONE', #243, .T. ) ;
#74 = APPLICATION_PROTOCOL_DEFINITION ( 'international standard', 'config_control_design', 1994, #289 ) ;
#75 = ORIENTED_EDGE ( 'NONE', *, *, #16, .F. ) ;
#76 = AXIS2_PLACEMENT_3D ( 'NONE', #192, #63, #275 ) ;
#77 = PERSON_AND_ORGANIZATION ( #148, #130 ) ;
#78 = EDGE_LOOP ( 'NONE', ( #115, #162 ) ) ;
#79 = DATE_AND_TIME ( #135, #159 ) ;
#80 = ORIENTED_EDGE ( 'NONE', *, *, #147, .T. ) ;
#81 = APPROVAL_STATUS ( 'not_yet_approved' ) ;
#82 = ORIENTED_EDGE ( 'NONE', *, *, #65, .T. ) ;
#83 = CC_DESIGN_PERSON_AND_ORGANIZATION_ASSIGNMENT ( #109, #266, ( #291 ) ) ;
#84 = APPLICATION_PROTOCOL_DEFINITION ( 'international standard', 'config_control_design', 1994, #119 ) ;
#85 = VERTEX_POINT ( 'NONE', #236 ) ;
#86 = CARTESIAN_POINT ( 'NONE',  ( -8.000000000000000000, 0.000000000000000000, 7.199999999999984190 ) ) ;
#87 = CLOSED_SHELL ( 'NONE', ( #6, #55, #44, #121, #178, #156, #229, #36, #288 ) ) ;
#88 = DIRECTION ( 'NONE',  ( 1.224646799147353207E-16, 1.000000000000000000, -0.000000000000000000 ) ) ;
#89 = CIRCLE ( 'NONE', #101, 11.00000000000000000 ) ;
#90 = EDGE_CURVE ( 'NONE', #137, #248, #173, .T. ) ;
#91 = DIRECTION ( 'NONE',  ( -0.000000000000000000, -0.000000000000000000, -1.000000000000000000 ) ) ;
#92 = FACE_OUTER_BOUND ( 'NONE', #208, .T. ) ;
#93 = CYLINDRICAL_SURFACE ( 'NONE', #201, 11.00000000000000000 ) ;
#94 = CC_DESIGN_APPROVAL ( #104, ( #282 ) ) ;
#95 = DIRECTION ( 'NONE',  ( 1.000000000000000000, 0.000000000000000000, 0.000000000000000000 ) ) ;
#96 = DIRECTION ( 'NONE',  ( -0.000000000000000000, -0.000000000000000000, -1.000000000000000000 ) ) ;
#97 = PRODUCT_RELATED_PRODUCT_CATEGORY ( 'detail', '', ( #66 ) ) ;
#98 = DIRECTION ( 'NONE',  ( 0.000000000000000000, 0.000000000000000000, 1.000000000000000000 ) ) ;
#99 = TOROIDAL_SURFACE ( 'NONE', #179, 8.200000000000001066, 0.2000000000000000111 ) ;
#100 = CARTESIAN_POINT ( 'NONE',  ( -8.200000000000001066, 1.004210375300829674E-15, 6.999999999999992006 ) ) ;
#101 = AXIS2_PLACEMENT_3D ( 'NONE', #5, #102, #204 ) ;
#102 = DIRECTION ( 'NONE',  ( 0.000000000000000000, 0.000000000000000000, 1.000000000000000000 ) ) ;
#103 = APPROVAL_DATE_TIME ( #57, #104 ) ;
#104 = APPROVAL ( #62, 'NEURÈENÝ' ) ;
#105 = AXIS2_PLACEMENT_3D ( 'NONE', #194, #215, #123 ) ;
#106 = PERSON_AND_ORGANIZATION ( #148, #130 ) ;
#107 = VERTEX_POINT ( 'NONE', #17 ) ;
#108 = CIRCLE ( 'NONE', #238, 8.000000000000000000 ) ;
#109 = PERSON_AND_ORGANIZATION ( #148, #130 ) ;
#110 = ORIENTED_EDGE ( 'NONE', *, *, #90, .T. ) ;
#111 = PERSON_AND_ORGANIZATION ( #148, #130 ) ;
#112 = EDGE_CURVE ( 'NONE', #190, #85, #269, .T. ) ;
#113 = ORIENTED_EDGE ( 'NONE', *, *, #26, .T. ) ;
#114 = APPROVAL_ROLE ( '' ) ;
#115 = ORIENTED_EDGE ( 'NONE', *, *, #48, .T. ) ;
#116 = MANIFOLD_SOLID_BREP ( 'Zaoblit1', #87 ) ;
#117 = APPROVAL_PERSON_ORGANIZATION ( #12, #239, #114 ) ;
#118 = DIRECTION ( 'NONE',  ( -0.000000000000000000, -0.000000000000000000, -1.000000000000000000 ) ) ;
#119 = APPLICATION_CONTEXT ( 'configuration controlled 3d designs of mechanical parts and assemblies' ) ;
#120 = FACE_OUTER_BOUND ( 'NONE', #230, .T. ) ;
#121 = ADVANCED_FACE ( 'NONE', ( #306 ), #93, .T. ) ;
#122 = AXIS2_PLACEMENT_3D ( 'NONE', #153, #216, #304 ) ;
#123 = DIRECTION ( 'NONE',  ( 0.000000000000000000, 0.000000000000000000, -1.000000000000000000 ) ) ;
#124 = AXIS2_PLACEMENT_3D ( 'NONE', #202, #261, #23 ) ;
#125 = DIRECTION ( 'NONE',  ( -0.000000000000000000, -0.000000000000000000, -1.000000000000000000 ) ) ;
#126 = CARTESIAN_POINT ( 'NONE',  ( 0.000000000000000000, 0.000000000000000000, 322.0000000000000000 ) ) ;
#127 = EDGE_CURVE ( 'NONE', #144, #278, #250, .T. ) ;
#128 = CARTESIAN_POINT ( 'NONE',  ( 0.000000000000000000, 0.000000000000000000, 322.0000000000000000 ) ) ;
#129 = VECTOR ( 'NONE', #91, 1000.000000000000000 ) ;
#130 = ORGANIZATION ( 'NEURÈENÝ', 'NEURÈENÝ', '' ) ;
#131 = DIRECTION ( 'NONE',  ( 1.000000000000000000, 0.000000000000000000, 0.000000000000000000 ) ) ;
#132 = DIRECTION ( 'NONE',  ( 1.000000000000000000, 0.000000000000000000, 0.000000000000000000 ) ) ;
#133 = CARTESIAN_POINT ( 'NONE',  ( 0.000000000000000000, 0.000000000000000000, 0.000000000000000000 ) ) ;
#134 = AXIS2_PLACEMENT_3D ( 'NONE', #307, #154, #95 ) ;
#135 = CALENDAR_DATE ( 2022, 7, 7 ) ;
#136 = CC_DESIGN_DATE_AND_TIME_ASSIGNMENT ( #79, #268, ( #282 ) ) ;
#137 = VERTEX_POINT ( 'NONE', #193 ) ;
#138 = AXIS2_PLACEMENT_3D ( 'NONE', #253, #41, #169 ) ;
#139 = PERSON_AND_ORGANIZATION ( #148, #130 ) ;
#140 = ORIENTED_EDGE ( 'NONE', *, *, #19, .F. ) ;
#141 = AXIS2_PLACEMENT_3D ( 'NONE', #283, #72, #132 ) ;
#142 = ORIENTED_EDGE ( 'NONE', *, *, #203, .F. ) ;
#143 = VERTEX_POINT ( 'NONE', #299 ) ;
#144 = VERTEX_POINT ( 'NONE', #86 ) ;
#145 = AXIS2_PLACEMENT_3D ( 'NONE', #260, #157, #200 ) ;
#146 = CYLINDRICAL_SURFACE ( 'NONE', #257, 8.000000000000000000 ) ;
#147 = EDGE_CURVE ( 'NONE', #107, #248, #51, .T. ) ;
#148 = PERSON ( 'NEURÈENÝ', 'NEURÈENÝ', 'NEURÈENÝ', ('NEURÈENÝ'), ('NEURÈENÝ'), ('NEURÈENÝ') ) ;
#149 = DIRECTION ( 'NONE',  ( 1.000000000000000000, 0.000000000000000000, 0.000000000000000000 ) ) ;
#150 = ORIENTED_EDGE ( 'NONE', *, *, #127, .F. ) ;
#151 = LOCAL_TIME ( 11, 38, 29.00000000000000000, #8 ) ;
#152 = CARTESIAN_POINT ( 'NONE',  ( 11.00000000000000000, 1.347111479062088405E-15, 7.000000000000000000 ) ) ;
#153 = CARTESIAN_POINT ( 'NONE',  ( 0.000000000000000000, 0.000000000000000000, 7.000000000000000000 ) ) ;
#154 = DIRECTION ( 'NONE',  ( 0.000000000000000000, 0.000000000000000000, 1.000000000000000000 ) ) ;
#155 =( NAMED_UNIT ( * ) SI_UNIT ( $, .STERADIAN. ) SOLID_ANGLE_UNIT ( ) );
#156 = ADVANCED_FACE ( 'NONE', ( #120 ), #213, .F. ) ;
#157 = DIRECTION ( 'NONE',  ( 0.000000000000000000, 0.000000000000000000, 1.000000000000000000 ) ) ;
#158 = FACE_OUTER_BOUND ( 'NONE', #160, .T. ) ;
#159 = LOCAL_TIME ( 11, 38, 29.00000000000000000, #274 ) ;
#160 = EDGE_LOOP ( 'NONE', ( #150, #60, #113, #142 ) ) ;
#161 = ORIENTED_EDGE ( 'NONE', *, *, #127, .T. ) ;
#162 = ORIENTED_EDGE ( 'NONE', *, *, #203, .T. ) ;
#163 = ADVANCED_BREP_SHAPE_REPRESENTATION ( '8a18', ( #116, #176 ), #69 ) ;
#164 = CALENDAR_DATE ( 2022, 7, 7 ) ;
#165 = ORIENTED_EDGE ( 'NONE', *, *, #276, .F. ) ;
#166 = ORIENTED_EDGE ( 'NONE', *, *, #16, .T. ) ;
#167 = CIRCLE ( 'NONE', #105, 0.1999999999999996503 ) ;
#168 = CC_DESIGN_DATE_AND_TIME_ASSIGNMENT ( #52, #29, ( #214 ) ) ;
#169 = DIRECTION ( 'NONE',  ( 1.000000000000000000, 0.000000000000000000, 0.000000000000000000 ) ) ;
#170 = CARTESIAN_POINT ( 'NONE',  ( -8.000000000000000000, 0.000000000000000000, 322.0000000000000000 ) ) ;
#171 = LINE ( 'NONE', #170, #129 ) ;
#172 = PLANE ( 'NONE',  #24 ) ;
#173 = LINE ( 'NONE', #235, #284 ) ;
#174 = FACE_OUTER_BOUND ( 'NONE', #227, .T. ) ;
#175 = EDGE_CURVE ( 'NONE', #248, #107, #89, .T. ) ;
#176 = AXIS2_PLACEMENT_3D ( 'NONE', #133, #7, #296 ) ;
#177 = CARTESIAN_POINT ( 'NONE',  ( -11.00000000000000000, 0.000000000000000000, 0.000000000000000000 ) ) ;
#178 = ADVANCED_FACE ( 'NONE', ( #237, #174 ), #256, .T. ) ;
#179 = AXIS2_PLACEMENT_3D ( 'NONE', #212, #251, #64 ) ;
#180 = AXIS2_PLACEMENT_3D ( 'NONE', #126, #217, #149 ) ;
#181 = ORIENTED_EDGE ( 'NONE', *, *, #219, .F. ) ;
#182 = SHAPE_DEFINITION_REPRESENTATION ( #21, #163 ) ;
#183 = ORIENTED_EDGE ( 'NONE', *, *, #147, .F. ) ;
#184 = CALENDAR_DATE ( 2022, 7, 7 ) ;
#185 = ORIENTED_EDGE ( 'NONE', *, *, #112, .F. ) ;
#186 = MECHANICAL_CONTEXT ( 'NONE', #289, 'mechanical' ) ;
#187 = ORIENTED_EDGE ( 'NONE', *, *, #112, .T. ) ;
#188 = TOROIDAL_SURFACE ( 'NONE', #141, 8.200000000000001066, 0.2000000000000000111 ) ;
#189 = PERSON_AND_ORGANIZATION ( #148, #130 ) ;
#190 = VERTEX_POINT ( 'NONE', #2 ) ;
#191 = EDGE_CURVE ( 'NONE', #56, #107, #218, .T. ) ;
#192 = CARTESIAN_POINT ( 'NONE',  ( 0.000000000000000000, 0.000000000000000000, 0.000000000000000000 ) ) ;
#193 = CARTESIAN_POINT ( 'NONE',  ( -11.00000000000000000, 0.000000000000000000, 7.000000000000000000 ) ) ;
#194 = CARTESIAN_POINT ( 'NONE',  ( 8.200000000000001066, 0.000000000000000000, 7.199999999999984190 ) ) ;
#195 = APPROVAL ( #10, 'NEURÈENÝ' ) ;
#196 = DIRECTION ( 'NONE',  ( -1.000000000000000000, 0.000000000000000000, 0.000000000000000000 ) ) ;
#197 = CARTESIAN_POINT ( 'NONE',  ( 0.000000000000000000, 0.000000000000000000, 7.000000000000000000 ) ) ;
#198 = LOCAL_TIME ( 11, 38, 29.00000000000000000, #224 ) ;
#199 = CARTESIAN_POINT ( 'NONE',  ( 0.000000000000000000, 0.000000000000000000, 7.199999999999984190 ) ) ;
#200 = DIRECTION ( 'NONE',  ( 1.000000000000000000, 0.000000000000000000, -0.000000000000000000 ) ) ;
#201 = AXIS2_PLACEMENT_3D ( 'NONE', #197, #281, #301 ) ;
#202 = CARTESIAN_POINT ( 'NONE',  ( 0.000000000000000000, 0.000000000000000000, 322.0000000000000000 ) ) ;
#203 = EDGE_CURVE ( 'NONE', #278, #143, #297, .T. ) ;
#204 = DIRECTION ( 'NONE',  ( 1.000000000000000000, 0.000000000000000000, 0.000000000000000000 ) ) ;
#205 = PERSON_AND_ORGANIZATION_ROLE ( 'design_owner' ) ;
#206 = ORIENTED_EDGE ( 'NONE', *, *, #19, .T. ) ;
#207 = SECURITY_CLASSIFICATION_LEVEL ( 'unclassified' ) ;
#208 = EDGE_LOOP ( 'NONE', ( #165, #273, #293, #75 ) ) ;
#209 = PERSON_AND_ORGANIZATION_ROLE ( 'creator' ) ;
#210 = COORDINATED_UNIVERSAL_TIME_OFFSET ( 1, 0, .AHEAD. ) ;
#211 = EDGE_LOOP ( 'NONE', ( #187, #267 ) ) ;
#212 = CARTESIAN_POINT ( 'NONE',  ( 0.000000000000000000, 0.000000000000000000, 7.199999999999984190 ) ) ;
#213 = PLANE ( 'NONE',  #263 ) ;
#214 = PRODUCT_DEFINITION ( 'NEZNÁMÝ', '', #291, #245 ) ;
#215 = DIRECTION ( 'NONE',  ( 0.000000000000000000, -1.000000000000000000, 0.000000000000000000 ) ) ;
#216 = DIRECTION ( 'NONE',  ( -0.000000000000000000, -0.000000000000000000, -1.000000000000000000 ) ) ;
#217 = DIRECTION ( 'NONE',  ( 0.000000000000000000, 0.000000000000000000, 1.000000000000000000 ) ) ;
#218 = LINE ( 'NONE', #25, #259 ) ;
#219 = EDGE_CURVE ( 'NONE', #137, #56, #254, .T. ) ;
#220 = LINE ( 'NONE', #43, #302 ) ;
#221 = EDGE_CURVE ( 'NONE', #85, #265, #220, .T. ) ;
#222 = CYLINDRICAL_SURFACE ( 'NONE', #46, 8.000000000000000000 ) ;
#223 = DIRECTION ( 'NONE',  ( -0.000000000000000000, -0.000000000000000000, -1.000000000000000000 ) ) ;
#224 = COORDINATED_UNIVERSAL_TIME_OFFSET ( 1, 0, .AHEAD. ) ;
#225 = CALENDAR_DATE ( 2022, 7, 7 ) ;
#226 = CIRCLE ( 'NONE', #138, 11.00000000000000000 ) ;
#227 = EDGE_LOOP ( 'NONE', ( #13, #82 ) ) ;
#228 = CIRCLE ( 'NONE', #122, 8.200000000000001066 ) ;
#229 = ADVANCED_FACE ( 'NONE', ( #73 ), #222, .T. ) ;
#230 = EDGE_LOOP ( 'NONE', ( #249, #183 ) ) ;
#231 = APPROVAL_PERSON_ORGANIZATION ( #106, #195, #240 ) ;
#232 = DIRECTION ( 'NONE',  ( -1.000000000000000000, 1.224646799147353207E-16, 0.000000000000000000 ) ) ;
#233 = FACE_OUTER_BOUND ( 'NONE', #294, .T. ) ;
#234 = CC_DESIGN_APPROVAL ( #239, ( #214 ) ) ;
#235 = CARTESIAN_POINT ( 'NONE',  ( -11.00000000000000000, 0.000000000000000000, 7.000000000000000000 ) ) ;
#236 = CARTESIAN_POINT ( 'NONE',  ( 8.000000000000000000, 9.797174393178825657E-16, 322.0000000000000000 ) ) ;
#237 = FACE_BOUND ( 'NONE', #78, .T. ) ;
#238 = AXIS2_PLACEMENT_3D ( 'NONE', #199, #98, #28 ) ;
#239 = APPROVAL ( #81, 'NEURÈENÝ' ) ;
#240 = APPROVAL_ROLE ( '' ) ;
#241 = EDGE_LOOP ( 'NONE', ( #30, #181, #110, #15 ) ) ;
#242 = DATE_AND_TIME ( #225, #271 ) ;
#243 = EDGE_LOOP ( 'NONE', ( #67, #185, #166, #206 ) ) ;
#244 = AXIS2_PLACEMENT_3D ( 'NONE', #262, #47, #131 ) ;
#245 = DESIGN_CONTEXT ( 'detailed design', #119, 'design' ) ;
#246 = CALENDAR_DATE ( 2022, 7, 7 ) ;
#247 = ORIENTED_EDGE ( 'NONE', *, *, #26, .F. ) ;
#248 = VERTEX_POINT ( 'NONE', #177 ) ;
#249 = ORIENTED_EDGE ( 'NONE', *, *, #175, .F. ) ;
#250 = CIRCLE ( 'NONE', #33, 0.2000000000000005107 ) ;
#251 = DIRECTION ( 'NONE',  ( 0.000000000000000000, 0.000000000000000000, 1.000000000000000000 ) ) ;
#252 = DIRECTION ( 'NONE',  ( 1.000000000000000000, 0.000000000000000000, 0.000000000000000000 ) ) ;
#253 = CARTESIAN_POINT ( 'NONE',  ( 0.000000000000000000, 0.000000000000000000, 7.000000000000000000 ) ) ;
#254 = CIRCLE ( 'NONE', #134, 11.00000000000000000 ) ;
#255 = CARTESIAN_POINT ( 'NONE',  ( -8.200000000000001066, 1.004210375300829674E-15, 7.199999999999984190 ) ) ;
#256 = PLANE ( 'NONE',  #145 ) ;
#257 = AXIS2_PLACEMENT_3D ( 'NONE', #68, #118, #280 ) ;
#258 =( LENGTH_UNIT ( ) NAMED_UNIT ( * ) SI_UNIT ( .MILLI., .METRE. ) );
#259 = VECTOR ( 'NONE', #50, 1000.000000000000000 ) ;
#260 = CARTESIAN_POINT ( 'NONE',  ( 0.000000000000000000, 0.000000000000000000, 7.000000000000000000 ) ) ;
#261 = DIRECTION ( 'NONE',  ( 0.000000000000000000, 0.000000000000000000, 1.000000000000000000 ) ) ;
#262 = CARTESIAN_POINT ( 'NONE',  ( 0.000000000000000000, 0.000000000000000000, 7.000000000000000000 ) ) ;
#263 = AXIS2_PLACEMENT_3D ( 'NONE', #71, #27, #286 ) ;
#264 = EDGE_CURVE ( 'NONE', #265, #144, #108, .T. ) ;
#265 = VERTEX_POINT ( 'NONE', #287 ) ;
#266 = PERSON_AND_ORGANIZATION_ROLE ( 'design_supplier' ) ;
#267 = ORIENTED_EDGE ( 'NONE', *, *, #276, .T. ) ;
#268 = DATE_TIME_ROLE ( 'classification_date' ) ;
#269 = CIRCLE ( 'NONE', #180, 8.000000000000000000 ) ;
#270 = ORIENTED_EDGE ( 'NONE', *, *, #65, .F. ) ;
#271 = LOCAL_TIME ( 11, 38, 29.00000000000000000, #210 ) ;
#272 = COORDINATED_UNIVERSAL_TIME_OFFSET ( 1, 0, .AHEAD. ) ;
#273 = ORIENTED_EDGE ( 'NONE', *, *, #221, .T. ) ;
#274 = COORDINATED_UNIVERSAL_TIME_OFFSET ( 1, 0, .AHEAD. ) ;
#275 = DIRECTION ( 'NONE',  ( 1.000000000000000000, 0.000000000000000000, 0.000000000000000000 ) ) ;
#276 = EDGE_CURVE ( 'NONE', #85, #190, #40, .T. ) ;
#277 = LOCAL_TIME ( 11, 38, 29.00000000000000000, #272 ) ;
#278 = VERTEX_POINT ( 'NONE', #100 ) ;
#279 = FACE_OUTER_BOUND ( 'NONE', #211, .T. ) ;
#280 = DIRECTION ( 'NONE',  ( -1.000000000000000000, 0.000000000000000000, 0.000000000000000000 ) ) ;
#281 = DIRECTION ( 'NONE',  ( -0.000000000000000000, -0.000000000000000000, -1.000000000000000000 ) ) ;
#282 = SECURITY_CLASSIFICATION ( '', '', #207 ) ;
#283 = CARTESIAN_POINT ( 'NONE',  ( 0.000000000000000000, 0.000000000000000000, 7.199999999999984190 ) ) ;
#284 = VECTOR ( 'NONE', #22, 1000.000000000000000 ) ;
#285 =( NAMED_UNIT ( * ) PLANE_ANGLE_UNIT ( ) SI_UNIT ( $, .RADIAN. ) );
#286 = DIRECTION ( 'NONE',  ( 1.000000000000000000, 0.000000000000000000, -0.000000000000000000 ) ) ;
#287 = CARTESIAN_POINT ( 'NONE',  ( 8.000000000000000000, 9.797174393178825657E-16, 7.199999999999984190 ) ) ;
#288 = ADVANCED_FACE ( 'NONE', ( #158 ), #188, .F. ) ;
#289 = APPLICATION_CONTEXT ( 'configuration controlled 3d designs of mechanical parts and assemblies' ) ;
#290 = CIRCLE ( 'NONE', #31, 8.000000000000000000 ) ;
#291 = PRODUCT_DEFINITION_FORMATION_WITH_SPECIFIED_SOURCE ( 'LIBOVOLNÝ', '', #66, .NOT_KNOWN. ) ;
#292 = PERSON_AND_ORGANIZATION_ROLE ( 'classification_officer' ) ;
#293 = ORIENTED_EDGE ( 'NONE', *, *, #264, .T. ) ;
#294 = EDGE_LOOP ( 'NONE', ( #270, #34, #80, #11 ) ) ;
#295 = UNCERTAINTY_MEASURE_WITH_UNIT (LENGTH_MEASURE( 1.000000000000000082E-05 ), #258, 'distance_accuracy_value', 'NONE');
#296 = DIRECTION ( 'NONE',  ( 1.000000000000000000, 0.000000000000000000, 0.000000000000000000 ) ) ;
#297 = CIRCLE ( 'NONE', #244, 8.200000000000001066 ) ;
#298 = APPROVAL_DATE_TIME ( #32, #195 ) ;
#299 = CARTESIAN_POINT ( 'NONE',  ( 8.200000000000001066, 0.000000000000000000, 6.999999999999992006 ) ) ;
#300 = CC_DESIGN_PERSON_AND_ORGANIZATION_ASSIGNMENT ( #111, #292, ( #282 ) ) ;
#301 = DIRECTION ( 'NONE',  ( -1.000000000000000000, 0.000000000000000000, 0.000000000000000000 ) ) ;
#302 = VECTOR ( 'NONE', #96, 1000.000000000000000 ) ;
#303 = FACE_OUTER_BOUND ( 'NONE', #58, .T. ) ;
#304 = DIRECTION ( 'NONE',  ( 1.000000000000000000, 0.000000000000000000, 0.000000000000000000 ) ) ;
#305 = CC_DESIGN_PERSON_AND_ORGANIZATION_ASSIGNMENT ( #77, #9, ( #214 ) ) ;
#306 = FACE_OUTER_BOUND ( 'NONE', #241, .T. ) ;
#307 = CARTESIAN_POINT ( 'NONE',  ( 0.000000000000000000, 0.000000000000000000, 7.000000000000000000 ) ) ;
ENDSEC;
END-ISO-10303-21;
