ISO-10303-21;
HEADER;
FILE_DESCRIPTION (( 'STEP AP203' ),
    '1' );
FILE_NAME ('f70e.STEP',
    '2023-02-12T11:45:29',
    ( '' ),
    ( '' ),
    'SwSTEP 2.0',
    'SolidWorks 2019',
    '' );
FILE_SCHEMA (( 'CONFIG_CONTROL_DESIGN' ));
ENDSEC;

DATA;
#1 = COORDINATED_UNIVERSAL_TIME_OFFSET ( 1, 0, .AHEAD. ) ;
#2 = APPROVAL_ROLE ( '' ) ;
#3 = ORGANIZATION ( 'NEURÈENÝ', 'NEURÈENÝ', '' ) ;
#4 = EDGE_CURVE ( 'NONE', #220, #185, #226, .T. ) ;
#5 = AXIS2_PLACEMENT_3D ( 'NONE', #152, #169, #255 ) ;
#6 = ORIENTED_EDGE ( 'NONE', *, *, #93, .T. ) ;
#7 = ADVANCED_FACE ( 'NONE', ( #13 ), #246, .T. ) ;
#8 = APPROVAL_STATUS ( 'not_yet_approved' ) ;
#9 = DIRECTION ( 'NONE',  ( -0.000000000000000000, -0.000000000000000000, -1.000000000000000000 ) ) ;
#10 = CARTESIAN_POINT ( 'NONE',  ( 7.000000000000000000, 8.572527594031473190E-16, 5.000000000000000000 ) ) ;
#11 = EDGE_CURVE ( 'NONE', #187, #136, #205, .T. ) ;
#12 = ORIENTED_EDGE ( 'NONE', *, *, #217, .T. ) ;
#13 = FACE_OUTER_BOUND ( 'NONE', #87, .T. ) ;
#14 = APPROVAL ( #131, 'NEURÈENÝ' ) ;
#15 = DIRECTION ( 'NONE',  ( -1.000000000000000000, 0.000000000000000000, 0.000000000000000000 ) ) ;
#16 = EDGE_CURVE ( 'NONE', #220, #187, #133, .T. ) ;
#17 = DIRECTION ( 'NONE',  ( 0.000000000000000000, 0.000000000000000000, 1.000000000000000000 ) ) ;
#18 = DESIGN_CONTEXT ( 'detailed design', #182, 'design' ) ;
#19 = DIRECTION ( 'NONE',  ( -0.000000000000000000, -0.000000000000000000, -1.000000000000000000 ) ) ;
#20 = APPROVAL_ROLE ( '' ) ;
#21 = CALENDAR_DATE ( 2023, 12, 2 ) ;
#22 = EDGE_CURVE ( 'NONE', #67, #134, #196, .T. ) ;
#23 = CC_DESIGN_PERSON_AND_ORGANIZATION_ASSIGNMENT ( #245, #42, ( #151 ) ) ;
#24 = FACE_OUTER_BOUND ( 'NONE', #179, .T. ) ;
#25 = EDGE_CURVE ( 'NONE', #185, #136, #175, .T. ) ;
#26 = LOCAL_TIME ( 12, 45, 29.00000000000000000, #94 ) ;
#27 = PERSON_AND_ORGANIZATION ( #112, #3 ) ;
#28 = DIRECTION ( 'NONE',  ( 0.000000000000000000, 0.000000000000000000, 1.000000000000000000 ) ) ;
#29 = CC_DESIGN_PERSON_AND_ORGANIZATION_ASSIGNMENT ( #132, #225, ( #234 ) ) ;
#30 = ORIENTED_EDGE ( 'NONE', *, *, #22, .F. ) ;
#31 = AXIS2_PLACEMENT_3D ( 'NONE', #228, #9, #49 ) ;
#32 = ORIENTED_EDGE ( 'NONE', *, *, #217, .F. ) ;
#33 = CC_DESIGN_SECURITY_CLASSIFICATION ( #151, ( #234 ) ) ;
#34 = CC_DESIGN_DATE_AND_TIME_ASSIGNMENT ( #115, #154, ( #211 ) ) ;
#35 = DIRECTION ( 'NONE',  ( 0.000000000000000000, 0.000000000000000000, 1.000000000000000000 ) ) ;
#36 = DIRECTION ( 'NONE',  ( 0.000000000000000000, 0.000000000000000000, 1.000000000000000000 ) ) ;
#37 = DIRECTION ( 'NONE',  ( 1.000000000000000000, 0.000000000000000000, 0.000000000000000000 ) ) ;
#38 = LOCAL_TIME ( 12, 45, 29.00000000000000000, #162 ) ;
#39 = CARTESIAN_POINT ( 'NONE',  ( 4.099999999999999645, 5.021051876504147385E-16, 500.0000000000000000 ) ) ;
#40 = CARTESIAN_POINT ( 'NONE',  ( 0.000000000000000000, 0.000000000000000000, 500.0000000000000000 ) ) ;
#41 = CARTESIAN_POINT ( 'NONE',  ( 0.000000000000000000, 0.000000000000000000, 5.000000000000000000 ) ) ;
#42 = PERSON_AND_ORGANIZATION_ROLE ( 'classification_officer' ) ;
#43 = COORDINATED_UNIVERSAL_TIME_OFFSET ( 1, 0, .AHEAD. ) ;
#44 = DATE_AND_TIME ( #111, #219 ) ;
#45 = AXIS2_PLACEMENT_3D ( 'NONE', #173, #76, #252 ) ;
#46 = ORIENTED_EDGE ( 'NONE', *, *, #4, .F. ) ;
#47 = PERSON_AND_ORGANIZATION_ROLE ( 'creator' ) ;
#48 = AXIS2_PLACEMENT_3D ( 'NONE', #54, #35, #102 ) ;
#49 = DIRECTION ( 'NONE',  ( -1.000000000000000000, 0.000000000000000000, 0.000000000000000000 ) ) ;
#50 = MECHANICAL_CONTEXT ( 'NONE', #168, 'mechanical' ) ;
#51 = DIRECTION ( 'NONE',  ( -0.000000000000000000, -0.000000000000000000, -1.000000000000000000 ) ) ;
#52 = VECTOR ( 'NONE', #127, 1000.000000000000000 ) ;
#53 = AXIS2_PLACEMENT_3D ( 'NONE', #56, #144, #174 ) ;
#54 = CARTESIAN_POINT ( 'NONE',  ( 0.000000000000000000, 0.000000000000000000, 5.000000000000000000 ) ) ;
#55 = AXIS2_PLACEMENT_3D ( 'NONE', #135, #199, #110 ) ;
#56 = CARTESIAN_POINT ( 'NONE',  ( 0.000000000000000000, 0.000000000000000000, 5.000000000000000000 ) ) ;
#57 = DIRECTION ( 'NONE',  ( 0.000000000000000000, 0.000000000000000000, 1.000000000000000000 ) ) ;
#58 = UNCERTAINTY_MEASURE_WITH_UNIT (LENGTH_MEASURE( 1.000000000000000082E-05 ), #61, 'distance_accuracy_value', 'NONE');
#59 = CC_DESIGN_APPROVAL ( #101, ( #211 ) ) ;
#60 = LINE ( 'NONE', #39, #52 ) ;
#61 =( LENGTH_UNIT ( ) NAMED_UNIT ( * ) SI_UNIT ( .MILLI., .METRE. ) );
#62 = CALENDAR_DATE ( 2023, 12, 2 ) ;
#63 = APPROVAL_PERSON_ORGANIZATION ( #27, #147, #20 ) ;
#64 = PERSON_AND_ORGANIZATION ( #112, #3 ) ;
#65 = CC_DESIGN_APPROVAL ( #147, ( #234 ) ) ;
#66 = CARTESIAN_POINT ( 'NONE',  ( 4.099999999999999645, 5.021051876504147385E-16, 500.0000000000000000 ) ) ;
#67 = VERTEX_POINT ( 'NONE', #66 ) ;
#68 = PERSON_AND_ORGANIZATION ( #112, #3 ) ;
#69 = ADVANCED_FACE ( 'NONE', ( #24 ), #116, .F. ) ;
#70 = VERTEX_POINT ( 'NONE', #191 ) ;
#71 = ORIENTED_EDGE ( 'NONE', *, *, #202, .T. ) ;
#72 = ORIENTED_EDGE ( 'NONE', *, *, #11, .F. ) ;
#73 = AXIS2_PLACEMENT_3D ( 'NONE', #244, #190, #243 ) ;
#74 =( NAMED_UNIT ( * ) SI_UNIT ( $, .STERADIAN. ) SOLID_ANGLE_UNIT ( ) );
#75 = CYLINDRICAL_SURFACE ( 'NONE', #229, 7.000000000000000000 ) ;
#76 = DIRECTION ( 'NONE',  ( 0.000000000000000000, 0.000000000000000000, 1.000000000000000000 ) ) ;
#77 = CARTESIAN_POINT ( 'NONE',  ( 7.000000000000000000, 8.572527594031473190E-16, 0.000000000000000000 ) ) ;
#78 = CLOSED_SHELL ( 'NONE', ( #160, #96, #7, #79, #69, #178, #153 ) ) ;
#79 = ADVANCED_FACE ( 'NONE', ( #251, #197 ), #171, .T. ) ;
#80 = CARTESIAN_POINT ( 'NONE',  ( 0.000000000000000000, 0.000000000000000000, 500.0000000000000000 ) ) ;
#81 = CALENDAR_DATE ( 2023, 12, 2 ) ;
#82 = AXIS2_PLACEMENT_3D ( 'NONE', #40, #108, #208 ) ;
#83 = APPLICATION_PROTOCOL_DEFINITION ( 'international standard', 'config_control_design', 1994, #182 ) ;
#84 = ORIENTED_EDGE ( 'NONE', *, *, #156, .F. ) ;
#85 = ORIENTED_EDGE ( 'NONE', *, *, #241, .F. ) ;
#86 = DIRECTION ( 'NONE',  ( 0.000000000000000000, 0.000000000000000000, 1.000000000000000000 ) ) ;
#87 = EDGE_LOOP ( 'NONE', ( #72, #118, #248, #129 ) ) ;
#88 = CYLINDRICAL_SURFACE ( 'NONE', #250, 4.099999999999999645 ) ;
#89 = CARTESIAN_POINT ( 'NONE',  ( 0.000000000000000000, 0.000000000000000000, 5.000000000000000000 ) ) ;
#90 = CARTESIAN_POINT ( 'NONE',  ( -7.000000000000000000, 0.000000000000000000, 5.000000000000000000 ) ) ;
#91 = DATE_AND_TIME ( #81, #180 ) ;
#92 = COORDINATED_UNIVERSAL_TIME_OFFSET ( 1, 0, .AHEAD. ) ;
#93 = EDGE_CURVE ( 'NONE', #134, #206, #121, .T. ) ;
#94 = COORDINATED_UNIVERSAL_TIME_OFFSET ( 1, 0, .AHEAD. ) ;
#95 = EDGE_LOOP ( 'NONE', ( #99, #161 ) ) ;
#96 = ADVANCED_FACE ( 'NONE', ( #103 ), #75, .T. ) ;
#97 = DIRECTION ( 'NONE',  ( -0.000000000000000000, -0.000000000000000000, -1.000000000000000000 ) ) ;
#98 = ORIENTED_EDGE ( 'NONE', *, *, #156, .T. ) ;
#99 = ORIENTED_EDGE ( 'NONE', *, *, #16, .T. ) ;
#100 = CC_DESIGN_APPROVAL ( #14, ( #151 ) ) ;
#101 = APPROVAL ( #155, 'NEURÈENÝ' ) ;
#102 = DIRECTION ( 'NONE',  ( 1.000000000000000000, 0.000000000000000000, 0.000000000000000000 ) ) ;
#103 = FACE_OUTER_BOUND ( 'NONE', #114, .T. ) ;
#104 = PRODUCT_DEFINITION_SHAPE ( 'NONE', 'NONE',  #211 ) ;
#105 = CARTESIAN_POINT ( 'NONE',  ( 7.000000000000000000, 8.572527594031473190E-16, 5.000000000000000000 ) ) ;
#106 = AXIS2_PLACEMENT_3D ( 'NONE', #89, #57, #37 ) ;
#107 =( NAMED_UNIT ( * ) PLANE_ANGLE_UNIT ( ) SI_UNIT ( $, .RADIAN. ) );
#108 = DIRECTION ( 'NONE',  ( 0.000000000000000000, 0.000000000000000000, 1.000000000000000000 ) ) ;
#109 = CARTESIAN_POINT ( 'NONE',  ( -4.099999999999999645, 0.000000000000000000, 5.000000000000000000 ) ) ;
#110 = DIRECTION ( 'NONE',  ( 1.000000000000000000, 0.000000000000000000, 0.000000000000000000 ) ) ;
#111 = CALENDAR_DATE ( 2023, 12, 2 ) ;
#112 = PERSON ( 'NEURÈENÝ', 'NEURÈENÝ', 'NEURÈENÝ', ('NEURÈENÝ'), ('NEURÈENÝ'), ('NEURÈENÝ') ) ;
#113 = APPROVAL_DATE_TIME ( #44, #14 ) ;
#114 = EDGE_LOOP ( 'NONE', ( #85, #227, #207, #46 ) ) ;
#115 = DATE_AND_TIME ( #62, #201 ) ;
#116 = PLANE ( 'NONE',  #143 ) ;
#117 = PERSON_AND_ORGANIZATION_ROLE ( 'design_supplier' ) ;
#118 = ORIENTED_EDGE ( 'NONE', *, *, #16, .F. ) ;
#119 = DIRECTION ( 'NONE',  ( 1.000000000000000000, 0.000000000000000000, 0.000000000000000000 ) ) ;
#120 = ORIENTED_EDGE ( 'NONE', *, *, #202, .F. ) ;
#121 = LINE ( 'NONE', #210, #170 ) ;
#122 = PLANE ( 'NONE',  #82 ) ;
#123 = DIRECTION ( 'NONE',  ( -1.000000000000000000, 0.000000000000000000, 0.000000000000000000 ) ) ;
#124 = CC_DESIGN_PERSON_AND_ORGANIZATION_ASSIGNMENT ( #68, #47, ( #211 ) ) ;
#125 =( GEOMETRIC_REPRESENTATION_CONTEXT ( 3 ) GLOBAL_UNCERTAINTY_ASSIGNED_CONTEXT ( ( #58 ) ) GLOBAL_UNIT_ASSIGNED_CONTEXT ( ( #61, #107, #74 ) ) REPRESENTATION_CONTEXT ( 'NONE', 'WORKASPACE' ) );
#126 = FACE_OUTER_BOUND ( 'NONE', #141, .T. ) ;
#127 = DIRECTION ( 'NONE',  ( -0.000000000000000000, -0.000000000000000000, -1.000000000000000000 ) ) ;
#128 = CALENDAR_DATE ( 2023, 12, 2 ) ;
#129 = ORIENTED_EDGE ( 'NONE', *, *, #25, .T. ) ;
#130 = AXIS2_PLACEMENT_3D ( 'NONE', #41, #17, #176 ) ;
#131 = APPROVAL_STATUS ( 'not_yet_approved' ) ;
#132 = PERSON_AND_ORGANIZATION ( #112, #3 ) ;
#133 = CIRCLE ( 'NONE', #48, 7.000000000000000000 ) ;
#134 = VERTEX_POINT ( 'NONE', #230 ) ;
#135 = CARTESIAN_POINT ( 'NONE',  ( 0.000000000000000000, 0.000000000000000000, 0.000000000000000000 ) ) ;
#136 = VERTEX_POINT ( 'NONE', #77 ) ;
#137 = APPLICATION_PROTOCOL_DEFINITION ( 'international standard', 'config_control_design', 1994, #168 ) ;
#138 = APPROVAL_PERSON_ORGANIZATION ( #240, #101, #2 ) ;
#139 = CC_DESIGN_PERSON_AND_ORGANIZATION_ASSIGNMENT ( #218, #117, ( #234 ) ) ;
#140 = EDGE_LOOP ( 'NONE', ( #163, #84, #6, #71 ) ) ;
#141 = EDGE_LOOP ( 'NONE', ( #98, #203 ) ) ;
#142 = EDGE_LOOP ( 'NONE', ( #30, #184, #12, #164 ) ) ;
#143 = AXIS2_PLACEMENT_3D ( 'NONE', #204, #28, #212 ) ;
#144 = DIRECTION ( 'NONE',  ( 0.000000000000000000, 0.000000000000000000, 1.000000000000000000 ) ) ;
#145 = EDGE_CURVE ( 'NONE', #67, #70, #60, .T. ) ;
#146 = CARTESIAN_POINT ( 'NONE',  ( 0.000000000000000000, 0.000000000000000000, 500.0000000000000000 ) ) ;
#147 = APPROVAL ( #8, 'NEURÈENÝ' ) ;
#148 = CARTESIAN_POINT ( 'NONE',  ( 0.000000000000000000, 0.000000000000000000, 5.000000000000000000 ) ) ;
#149 = VECTOR ( 'NONE', #51, 1000.000000000000000 ) ;
#150 = DIRECTION ( 'NONE',  ( 0.000000000000000000, 0.000000000000000000, 1.000000000000000000 ) ) ;
#151 = SECURITY_CLASSIFICATION ( '', '', #215 ) ;
#152 = CARTESIAN_POINT ( 'NONE',  ( 0.000000000000000000, 0.000000000000000000, 500.0000000000000000 ) ) ;
#153 = ADVANCED_FACE ( 'NONE', ( #126 ), #122, .T. ) ;
#154 = DATE_TIME_ROLE ( 'creation_date' ) ;
#155 = APPROVAL_STATUS ( 'not_yet_approved' ) ;
#156 = EDGE_CURVE ( 'NONE', #134, #67, #222, .T. ) ;
#157 = APPROVAL_DATE_TIME ( #177, #147 ) ;
#158 = PERSON_AND_ORGANIZATION_ROLE ( 'design_owner' ) ;
#159 = CARTESIAN_POINT ( 'NONE',  ( 0.000000000000000000, 0.000000000000000000, 500.0000000000000000 ) ) ;
#160 = ADVANCED_FACE ( 'NONE', ( #213 ), #88, .T. ) ;
#161 = ORIENTED_EDGE ( 'NONE', *, *, #241, .T. ) ;
#162 = COORDINATED_UNIVERSAL_TIME_OFFSET ( 1, 0, .AHEAD. ) ;
#163 = ORIENTED_EDGE ( 'NONE', *, *, #145, .F. ) ;
#164 = ORIENTED_EDGE ( 'NONE', *, *, #93, .F. ) ;
#165 = PRODUCT ( 'f70e', 'f70e', '', ( #50 ) ) ;
#166 = ORIENTED_EDGE ( 'NONE', *, *, #25, .F. ) ;
#167 = CC_DESIGN_DATE_AND_TIME_ASSIGNMENT ( #91, #237, ( #151 ) ) ;
#168 = APPLICATION_CONTEXT ( 'configuration controlled 3d designs of mechanical parts and assemblies' ) ;
#169 = DIRECTION ( 'NONE',  ( -0.000000000000000000, -0.000000000000000000, -1.000000000000000000 ) ) ;
#170 = VECTOR ( 'NONE', #231, 1000.000000000000000 ) ;
#171 = PLANE ( 'NONE',  #53 ) ;
#172 = CIRCLE ( 'NONE', #45, 7.000000000000000000 ) ;
#173 = CARTESIAN_POINT ( 'NONE',  ( 0.000000000000000000, 0.000000000000000000, 0.000000000000000000 ) ) ;
#174 = DIRECTION ( 'NONE',  ( 1.000000000000000000, 0.000000000000000000, -0.000000000000000000 ) ) ;
#175 = CIRCLE ( 'NONE', #73, 7.000000000000000000 ) ;
#176 = DIRECTION ( 'NONE',  ( 1.000000000000000000, 0.000000000000000000, 0.000000000000000000 ) ) ;
#177 = DATE_AND_TIME ( #128, #38 ) ;
#178 = ADVANCED_FACE ( 'NONE', ( #253 ), #209, .T. ) ;
#179 = EDGE_LOOP ( 'NONE', ( #166, #223 ) ) ;
#180 = LOCAL_TIME ( 12, 45, 29.00000000000000000, #1 ) ;
#181 = DATE_AND_TIME ( #21, #26 ) ;
#182 = APPLICATION_CONTEXT ( 'configuration controlled 3d designs of mechanical parts and assemblies' ) ;
#183 = AXIS2_PLACEMENT_3D ( 'NONE', #159, #86, #119 ) ;
#184 = ORIENTED_EDGE ( 'NONE', *, *, #145, .T. ) ;
#185 = VERTEX_POINT ( 'NONE', #235 ) ;
#186 = CC_DESIGN_PERSON_AND_ORGANIZATION_ASSIGNMENT ( #221, #158, ( #165 ) ) ;
#187 = VERTEX_POINT ( 'NONE', #105 ) ;
#188 = APPROVAL_PERSON_ORGANIZATION ( #64, #14, #216 ) ;
#189 = EDGE_LOOP ( 'NONE', ( #120, #32 ) ) ;
#190 = DIRECTION ( 'NONE',  ( 0.000000000000000000, 0.000000000000000000, 1.000000000000000000 ) ) ;
#191 = CARTESIAN_POINT ( 'NONE',  ( 4.099999999999999645, 5.021051876504147385E-16, 5.000000000000000000 ) ) ;
#192 = CIRCLE ( 'NONE', #106, 4.099999999999999645 ) ;
#193 = CARTESIAN_POINT ( 'NONE',  ( 0.000000000000000000, 0.000000000000000000, 5.000000000000000000 ) ) ;
#194 = DIRECTION ( 'NONE',  ( -0.000000000000000000, -0.000000000000000000, -1.000000000000000000 ) ) ;
#195 = DIRECTION ( 'NONE',  ( 1.000000000000000000, 0.000000000000000000, 0.000000000000000000 ) ) ;
#196 = CIRCLE ( 'NONE', #183, 4.099999999999999645 ) ;
#197 = FACE_OUTER_BOUND ( 'NONE', #95, .T. ) ;
#198 = CIRCLE ( 'NONE', #130, 4.099999999999999645 ) ;
#199 = DIRECTION ( 'NONE',  ( 0.000000000000000000, 0.000000000000000000, 1.000000000000000000 ) ) ;
#200 = SHAPE_DEFINITION_REPRESENTATION ( #104, #239 ) ;
#201 = LOCAL_TIME ( 12, 45, 29.00000000000000000, #92 ) ;
#202 = EDGE_CURVE ( 'NONE', #206, #70, #192, .T. ) ;
#203 = ORIENTED_EDGE ( 'NONE', *, *, #22, .T. ) ;
#204 = CARTESIAN_POINT ( 'NONE',  ( 0.000000000000000000, 0.000000000000000000, 0.000000000000000000 ) ) ;
#205 = LINE ( 'NONE', #10, #242 ) ;
#206 = VERTEX_POINT ( 'NONE', #109 ) ;
#207 = ORIENTED_EDGE ( 'NONE', *, *, #233, .T. ) ;
#208 = DIRECTION ( 'NONE',  ( 1.000000000000000000, 0.000000000000000000, -0.000000000000000000 ) ) ;
#209 = CYLINDRICAL_SURFACE ( 'NONE', #5, 4.099999999999999645 ) ;
#210 = CARTESIAN_POINT ( 'NONE',  ( -4.099999999999999645, 0.000000000000000000, 500.0000000000000000 ) ) ;
#211 = PRODUCT_DEFINITION ( 'NEZNÁMÝ', '', #234, #18 ) ;
#212 = DIRECTION ( 'NONE',  ( 1.000000000000000000, 0.000000000000000000, -0.000000000000000000 ) ) ;
#213 = FACE_OUTER_BOUND ( 'NONE', #142, .T. ) ;
#214 = AXIS2_PLACEMENT_3D ( 'NONE', #146, #36, #195 ) ;
#215 = SECURITY_CLASSIFICATION_LEVEL ( 'unclassified' ) ;
#216 = APPROVAL_ROLE ( '' ) ;
#217 = EDGE_CURVE ( 'NONE', #70, #206, #198, .T. ) ;
#218 = PERSON_AND_ORGANIZATION ( #112, #3 ) ;
#219 = LOCAL_TIME ( 12, 45, 29.00000000000000000, #43 ) ;
#220 = VERTEX_POINT ( 'NONE', #90 ) ;
#221 = PERSON_AND_ORGANIZATION ( #112, #3 ) ;
#222 = CIRCLE ( 'NONE', #214, 4.099999999999999645 ) ;
#223 = ORIENTED_EDGE ( 'NONE', *, *, #233, .F. ) ;
#224 = CIRCLE ( 'NONE', #238, 7.000000000000000000 ) ;
#225 = PERSON_AND_ORGANIZATION_ROLE ( 'creator' ) ;
#226 = LINE ( 'NONE', #247, #149 ) ;
#227 = ORIENTED_EDGE ( 'NONE', *, *, #11, .T. ) ;
#228 = CARTESIAN_POINT ( 'NONE',  ( 0.000000000000000000, 0.000000000000000000, 5.000000000000000000 ) ) ;
#229 = AXIS2_PLACEMENT_3D ( 'NONE', #193, #194, #123 ) ;
#230 = CARTESIAN_POINT ( 'NONE',  ( -4.099999999999999645, 0.000000000000000000, 500.0000000000000000 ) ) ;
#231 = DIRECTION ( 'NONE',  ( -0.000000000000000000, -0.000000000000000000, -1.000000000000000000 ) ) ;
#232 = DIRECTION ( 'NONE',  ( 1.000000000000000000, 0.000000000000000000, 0.000000000000000000 ) ) ;
#233 = EDGE_CURVE ( 'NONE', #136, #185, #172, .T. ) ;
#234 = PRODUCT_DEFINITION_FORMATION_WITH_SPECIFIED_SOURCE ( 'LIBOVOLNÝ', '', #165, .NOT_KNOWN. ) ;
#235 = CARTESIAN_POINT ( 'NONE',  ( -7.000000000000000000, 0.000000000000000000, 0.000000000000000000 ) ) ;
#236 = APPROVAL_DATE_TIME ( #181, #101 ) ;
#237 = DATE_TIME_ROLE ( 'classification_date' ) ;
#238 = AXIS2_PLACEMENT_3D ( 'NONE', #148, #150, #232 ) ;
#239 = ADVANCED_BREP_SHAPE_REPRESENTATION ( 'f70e', ( #254, #55 ), #125 ) ;
#240 = PERSON_AND_ORGANIZATION ( #112, #3 ) ;
#241 = EDGE_CURVE ( 'NONE', #187, #220, #224, .T. ) ;
#242 = VECTOR ( 'NONE', #97, 1000.000000000000000 ) ;
#243 = DIRECTION ( 'NONE',  ( 1.000000000000000000, 0.000000000000000000, 0.000000000000000000 ) ) ;
#244 = CARTESIAN_POINT ( 'NONE',  ( 0.000000000000000000, 0.000000000000000000, 0.000000000000000000 ) ) ;
#245 = PERSON_AND_ORGANIZATION ( #112, #3 ) ;
#246 = CYLINDRICAL_SURFACE ( 'NONE', #31, 7.000000000000000000 ) ;
#247 = CARTESIAN_POINT ( 'NONE',  ( -7.000000000000000000, 0.000000000000000000, 5.000000000000000000 ) ) ;
#248 = ORIENTED_EDGE ( 'NONE', *, *, #4, .T. ) ;
#249 = PRODUCT_RELATED_PRODUCT_CATEGORY ( 'detail', '', ( #165 ) ) ;
#250 = AXIS2_PLACEMENT_3D ( 'NONE', #80, #19, #15 ) ;
#251 = FACE_BOUND ( 'NONE', #189, .T. ) ;
#252 = DIRECTION ( 'NONE',  ( 1.000000000000000000, 0.000000000000000000, 0.000000000000000000 ) ) ;
#253 = FACE_OUTER_BOUND ( 'NONE', #140, .T. ) ;
#254 = MANIFOLD_SOLID_BREP ( 'Pøidat vysunutím3', #78 ) ;
#255 = DIRECTION ( 'NONE',  ( -1.000000000000000000, 0.000000000000000000, 0.000000000000000000 ) ) ;
ENDSEC;
END-ISO-10303-21;
